Oops, an error
Loading. Please wait.

Radio Krimen tab

47 views 1 this week
no commentswrite comment
1 2 3 4 5
3 more votes to show rating
add to favorites
×
Save as Personal and add changes to this tab that will be seen only by you. Learn more ›
×
You can save this tab as Personal to edit and correct it or add notes. All changes will be seen only by you. Learn more »
launch autoscroll
font size
0
reset
how to read this tab
guitar tuner
edit
Autoscroll
slow
fast
+/-
esc
set tempo
stop
inicia con E

6/--------------------------------------------
5/--------------------------------------------
4/--------------------------------------------    x2
3/------11-12-1-----12-----------11-12-11----
2/---------------12-------------------------13
1/--------------------------------------------

:todo va en 5º:
E-B-B G-G-D       X2

                      D-D-D
Todo es como debe ser
                          D-D-D
todo va como tiene que ir
                       D-D-D
todo es como debe ser
                      D-D-D
todo va como tiene
E            B      G    D          E     B       G         D
los currelas queman una estacion, digamos que es un dia feo y gris
E    B    G     D  E   B       G        D
todo hace suponer que acabaran pegaos a la pared

1----------------------
2----------------------
3--9-9------12---------
4--9-9-9-9--12-12-12-12
5--7-7-9-9--10-12-12-12
6------7-7-----10-10-10

policia en formacion,digamos que es una probocacion

el dinero pide mas,sacrificados por la paz social


E
radio crimen que te ladra sin parar
tu no eres,tu no existes
6/-------------------------------------------------------------------
5/-------------------------------------------------------------------
4/-------------------------------------------------------------------
3/-11-12-11-----11-----------11-12-11------11-12-11---12---11-12-11--
2/----------12-------------------------12----------12--------------12/
1/-------------------------------------------------------------------

...2--14-14-11-11-12----------------------------------------------

parababambambam no te fies mas
ni de ti ni,ni de los demas
bambambam quedaras a un lado en las garras de la caridad

D
y todo va...
y todo va...

todo es como debe ser
todo va como tiene que ir
todo es como debe ser
todo va como tiene que ir
radio crimen emitiendo...
radio crimen emitiendo...

            
            
Suggest correction
Creating personal tab
Creating personal tab
You can edit any tab online and save it as your Personal.

You can edit, replace or remove any tab part or add personal notes – all changes will be seen only by you.

Personal tabs can be accessed anytime from any device, even offline.
Learn more »
Give kudos to tab author, rate the tab!
1 2 3 4 5
comments
print report bad tab
guest
Wanna post a correction for this tab? Suggest correction