Oops, an error
Loading. Please wait.

Sin Salida tab

40 views 1 this week
no commentswrite comment
1 2 3 4 5
3 more votes to show rating
add to favorites
×
Save as Personal and add changes to this tab that will be seen only by you. Learn more ›
×
You can save this tab as Personal to edit and correct it or add notes. All changes will be seen only by you. Learn more »
launch autoscroll
font size
0
reset
how to read this tab
guitar tuner
edit
Autoscroll
slow
fast
+/-
esc
set tempo
stop
INTRO:
-------------------------------------------------------
-------------------------------------------------------
-------------------------------------------------------
-2-2-2---------2-2-2-----------------------------------
-2-2-2--0-1-2--2-2-2--0-1-2----------------------------
-0-0-0---------0-0-0---------0-3-4-5-6-7--0-3-4-5-6-7--

----------------------------- |
----------------------------- |
-9-7-9--7-9-7--9-7-9--9-9-9-- | x4
-9-7-9--5-7-5--9-7-9--9-9-9-- |
-7-5-7---------7-5-7--7-7-7-- |
----------------------------- |
                      ··PM··

C
Estoy esposado y no puedo huir

G -------------
A -0-3-4-5-6-7- x2
E -------------

E
Golpes y patadas llueven sobre mi

G -------------
A ------------- x2
E -0-3-4-5-6-7-

C
los carceleros me dan, descansan y vuelven

G -------------
A -0-3-4-5-6-7- x2
E -------------

E
otro vez y otra vez y otra vez con la furia del cobarde

(PAUSA)

G -------------
A ------------- x4
E -0-3-4-5-6-7-


C
El mundo está en orden, nadie me recuerda

--------------------
--------------------
-9--------12--------
---9-10~-----12-10~-
--------------------
--------------------

E
la gente tranquila en sus vidas de mierda

---------------------------------
---------------------------------
-9----------------9--------------
---9-10~9-10-9~-----9-10~9-10-9~-
---------------------------------
---------------------------------

C
el juez se ha dormido en su indiferencia

--------------------
--------------------
-9--------12--------
---9-10~-----12-10~-
--------------------
--------------------

E
y yo estoy colgando de un trozo de cuerda


G ----------------------------------------------------
A ----------------------------------------------------
E -0-3-4-5-6-7---0-3-4-5-6-7---0-3-4-5-6-7--0-3-5-3-0-

G -----------------------------------------------------
A -----------------------------------------------------
E -0-3-4-5-6-7---0-3-5-3-0---0-3-4-5-6-7---0-3-5-3-0---


C... D... E... Gm...


SOLO:
--------------------7-----------------------------------7-----
-----8-----------------------------8--------------8-----------
-7-9---9-7-9~---7-9---9-7-9~---7-9---9-7-9~---7-9---7-9---9-7-
--------------------------------------------------------------
--------------------------------------------------------------
--------------------------------------------------------------
(La otra guitarra toca E)

-------8-7----------8-7-----------8-7------------7-7-7-
-----8----8-------8-----8-------8-----8--------8-------
-7-9----------7-9-----------7-9------------7-9---------
-------------------------------------------------------
-------------------------------------------------------
-------------------------------------------------------
(La otra guitarra toca C)

----------------------7-------------------------------7-7-7--------
-------8-----------------------------8--------------8-------8------
-7-9-7---9-7-9~---7-9---9-7-9~---7-9---9-7-9~---7-9-----------9-7~-
-------------------------------------------------------------------
-------------------------------------------------------------------
-------------------------------------------------------------------
(La otra guitarra toca E)


C              A
Oooooooooooh!!

E (PM)        G - C
Oooooooooooh!!

C
el juez se ha dormido en su indiferencia

G -------------
A -0-3-4-5-6-7- x2
E -------------

E                                         G - C
y yo estoy colgando de un trozo de cuerda

E-E-E

            
            
Suggest correction
Creating personal tab
Creating personal tab
You can edit any tab online and save it as your Personal.

You can edit, replace or remove any tab part or add personal notes – all changes will be seen only by you.

Personal tabs can be accessed anytime from any device, even offline.
Learn more »
Give kudos to tab author, rate the tab!
1 2 3 4 5
comments
print report bad tab
guest
Wanna post a correction for this tab? Suggest correction