Oops, an error
Loading. Please wait.

Tan Sometido bass

55 views 1 this week
no commentswrite comment
1 2 3 4 5
2 more votes to show rating
add to favorites
×
Save as Personal and add changes to this tab that will be seen only by you. Learn more ›
×
You can save this tab as Personal to edit and correct it or add notes. All changes will be seen only by you. Learn more »
launch autoscroll
font size
0
reset
guitar tuner
edit
Autoscroll
slow
fast
+/-
esc
set tempo
stop
SALUD!!

 ...CONTINUAMOS LA LECCION DE ESTA ROLA
     AHORA CON BAJO....

 ¿YA TIENEN LISTOS SUS LIBROS???
----
INTRO:
G |----------------------------|
D |----------------------------|
A |--3-3-3-3-3-3-3-3-3-3-3-3-3-|
E |----------------------------|
     hay ke estudiar; algo con porvenir,
     hay ke estudiar; algo para escapar:
G |----------------------------|
D |----------------------------|
A |--0-0-0-0-0-0-0-0-0-0-0-0-0-|
E |----------------------------|
     una carrera con salida ;
G |----------------------------|
D |----------------------------|
A |----------------------------|
E |--3-3-3-3-3-3-3-3-3-3-3-3-3-|
    de las miserias de la vida.

----->

 Y ASI SIGUEN LAS NOTAS, ACOPLANDOSE AL ACORDE:

G |----------------------------|
D |----------------------------|
A |--3-3-3-3-3-3-3-3-3-3-3-3-3-|
E |----------------------------| 
               
   'Tan aburrido' hay que estudiar.
   'Tan sometido' algo con porvenir.
   'Tan aburrido' hay que buscar.
   'Tan sometido' algo para escapar,
G |----------------------------|
D |----------------------------|
A |--0-0-0-0-0-0-0-0-0-0-0-0-0-|
E |----------------------------|
     una carrera con salida ;
------>

  SOLO CAMBIARIA EN UN PAR DE CASOS   ASI:
G |-------------------------------|
D |-------------------------------|
A |-2-0---------------------------|
E |-----3-3-3-3-3-3-3-3-3-3-3-3-3-|
           de las miserias de la vida.
  
----->

AKI  ENTRA LO DE :

 	
G |------------------------------------------------------|
D |------------------------------------------------------|
A |-----------------------0-0-----------------------3-3--|
E |--3-3-3-3-3-3-3-3-3-3-----------3-3-3-3-3-3-3-3-------|
    creo ke sera lo mas prudente, buscar algo de seguridad

----->

 Y ESO ES TODO !!

  SOLO USA CHIDO LOS ACORDES Y SE ACABUCHES!!

 KAMARA Y SUERTE, NOS VEMOS ESTE 7 DE DICIEMBRE DEL 2001 , EN EL KRONOS BAR, PARA VER A CANALLAS
 DESDE   ESPAÑA. AYA NOS  VEMOS!!

   

 'GENE§PUNK'

            
            
Suggest correction
Creating personal tab
Creating personal tab
You can edit any tab online and save it as your Personal.

You can edit, replace or remove any tab part or add personal notes – all changes will be seen only by you.

Personal tabs can be accessed anytime from any device, even offline.
Learn more »
Give kudos to tab author, rate the tab!
1 2 3 4 5
comments
print report bad tab
guest
Wanna post a correction for this tab? Suggest correction