Oops, an error
Loading. Please wait.

Tu Mas Energica Repulsa bass

version 2
version 2

Whole song

33 views 1 this week
no commentswrite comment
1 2 3 4 5
3 more votes to show rating
add to favorites
×
Save as Personal and add changes to this tab that will be seen only by you. Learn more ›
×
You can save this tab as Personal to edit and correct it or add notes. All changes will be seen only by you. Learn more »
launch autoscroll
font size
0
reset
guitar tuner
edit
Autoscroll
slow
fast
+/-
esc
set tempo
stop
g--------------------------------------------------------------------------|
d--------------------------------------------------------------------------|
a-----3-2-------------3-2------3-2------3-2------3-2------3-2------3-2-----|
e-0-3-------------0-3------0-3------0-3------0-3------0-3------0-3---------|

Cuando la muerte te golpea, cuando tu miedo se dispara,
tú contra todas las violencias, te vengan de donde te vengan

g---------------------------------------------------------------------------|
d---------------------------------------------------------------------------|
a-----------7---------------------------------------------------------------|
e-5-5-7-7-8---------5-5-7-7-8-7--------5-5-7-7-8----------5-7-8-7-5---------|

Tu más enérgica repulsa,tu más enérgica repulsa,
tu más enérgica repulsa,¡firme voluntad!

g---------------------------------------------------------------------------|
d---------------------------------------------------------------------------|
a-----3-2------3-2------3-2------3-2------3-2------3-2------3-2------3-2----|
e-0-3------0-3------0-3------0-3------0-3------0-3------0-3------0-3--------|

Cuando millones de pagados sufren tu terror de Estado,
cuando el miedo que provocas mantiene quietas las botas

g---------------------------------------------------------------------------|
d---------------------------------------------------------------------------|
a-----------7---------------------------------------------------------------|
e-5-5-7-7-8---------5-5-7-7-8-7--------5-5-7-7-8----------5-7-8-7-5---------|

Tu más enérgica repulsa,tu más enérgica repulsa,
tu más enérgica repulsa,¡por los dioses no!

g---------------------------------------------------------------------------|
d---------------------------------------------------------------------------|
a-------------3-2---5---3-3-2-2--7/1---------3-2--------2-3-0-2-------------|x2
e---------0-3-----5----------------------0-3-----5-5-----------0------------|


g---------------------------------------------------------------------------|
d---------------------------------------------------------------------------|
a-----------7---------------------------------------------------------------|
e-5-5-7-7-8---------5-5-7-7-8-7--------5-5-7-7-8----------5-7-8-7-5---------|

Tu más enérgica repulsa,tu más enérgica repulsa,
tu más enérgica repulsa,¡por los dioses no!

g-------------------------------------|
d-------------------------------------|
a-----3-2------3-2------3-2------3-2--|
e-0-3------0-3------0-3------0-3------|


¡yah!
Suggest correction
Creating personal tab
Creating personal tab
You can edit any tab online and save it as your Personal.

You can edit, replace or remove any tab part or add personal notes – all changes will be seen only by you.

Personal tabs can be accessed anytime from any device, even offline.
Learn more »
Give kudos to tab author, rate the tab!
1 2 3 4 5
comments
print report bad tab
guest
Wanna post a correction for this tab? Suggest correction