Oops, an error
Loading. Please wait.

Micaela tab

94 views 1 this week
no commentswrite comment
1 2 3 4 5
3 more votes to show rating
add to favorites
×
Save as Personal and add changes to this tab that will be seen only by you. Learn more ›
×
You can save this tab as Personal to edit and correct it or add notes. All changes will be seen only by you. Learn more »
launch autoscroll
font size
0
reset
how to read this tab
guitar tuner
edit
Autoscroll
slow
fast
+/-
esc
set tempo
stop
INTRO:
e|----------------------------------------------------12-14-12~~~~--|
B|------------------------------------12-14-12~~-12-14--------------|
G|------9----11b-11b~~-11br-9-11~~-11b------------------------------|
D|-9-11---11--------------------------------------------------------|
A|------------------------------------------------------------------|
E|------------------------------------------------------------------|

E                               F#
Es la vida la q cuenta como llego a este infierno
       B                        E
Con necesidad de buscar este extremo
E                                F#
Sumergida en la luz negra q describe simplemente
       B                        E
Los perversos corazones de mi gente


e|----------------------------------------|
B|----------------------------------12~~--|
G|-9-9-9--11br-11-9-11---11-11br-9--------|
D|----------------------------------------|
A|----------------------------------------|
E|----------------------------------------
|
                   /--------------!!! RAPIDO !!!------------
e|-------12-14-12---15-14-12-15-14-12-15-14-12-15-14-12-12~~--|
B|-12-14------------------------------------------------------|
G|------------------------------------------------------------|
D|------------------------------------------------------------|
A|------------------------------------------------------------|
E|------------------------------------------------------------|


Es la vida la q cuenta como llego a este infierno
Con necesidad de buscar este extremo
Sumergida en la luz negra q describe simplemente
Los perversos corazones de mi gente
Todo es igual a siempre poco amor violencia y vicios
Entregados a tu cuerpo como al vino
Ya sin ganas de su mundo
Arañando a un cielo turbio
No me duele tu castigo ya estoy duro.

 C#m            D           A           E
Y TE SIENTES MICAELA COMO TU QUERIAS ESTAR?
 C#m            D           A           E
SON TUS OJOS CONDENADOS LOS QUE A MI ME HACEN PENSAR
 C#m            D           A           E
CUANTAS CAUSAS EN TU VIDA TE HAN HECHO DEJAR DE ESTAR?
 C#m            D           A           E
CUANTAS VECES INTENTASTES Y NO PUDISTES ESQUIVAR?


e|----------------------------------------|
B|----------------------------------12~~--|
G|-9-9-9--11br-11-9-11---11-11br-9--------|
D|----------------------------------------|
A|----------------------------------------|
E|----------------------------------------
|
                   /--------------!!! RAPIDO !!!------------
e|-------12-14-12---15-14-12-15-14-12-15-14-12-15-14-12-12~~--|
B|-12-14------------------------------------------------------|
G|------------------------------------------------------------|
D|------------------------------------------------------------|
A|------------------------------------------------------------|
E|------------------------------------------------------------|


Ya llegando a ser historia, con victorias y secuelas
A intentar crear su imagen ella juega
un desierto sin estribos, ella marca el camino
El ayer ya no importa si se ha ido
Y TE SIENTES MICAELA COMO TU QUERIAS ESTAR?
SON TUS OJOS CONDENADOS LOS QUE A MI ME HACEN PENSAR
CUANTAS CAUSAS EN TU VIDA TE HAN HECHO DEJAR DE ESTAR?
CUANTAS VECES INTENTASTES Y NO PUDISTES ESQUIVAR?


FINAL:
  C                          D
No es aseeeeeee??? No es aseeeeee???
 E* - D* - C* - B* - A* - G* - E
No es aseeeeeeeeeeeeeeeeeeeeeeeeeeeeeee???
  E                          C              D
No es aseeeeeee??? No es aseeeeee???  No es aseeeeee???
 E* - D* - C* - B* - A* - G* - E
No es aseeeeeeeeeeeeeeeeeeeeeeeeeeeeeee???
      E                    C                   D
naranaranaranara .. naranaranaranara .. naranaranaranara ..
 E* - D* - C* - B* - A* - G* - E
ohhhhhhhhhhhhhhhhhhhhhhhhhhhhhhhhhhhhh

(repite varias veces el final..)


E = MI       F# = FA#     B = SI      C#m = DO#m    D = RE
e|-0-|       e|-2-|       e|-2-|       e|-4-|       e|-2-|
B|-0-|       B|-2-|       B|-4-|       B|-5-|       B|-3-|
G|-1-|       G|-3-|       G|-4-|       G|-6-|       G|-2-|
D|-2-|       D|-4-|       D|-4-|       D|-6-|       D|-0-|
A|-2-|       A|-4-|       A|-2-|       A|-4-|       A|-x-|
E|-0-|       E|-2-|       E|-x-|       E|-x-|       E|-x-|


A = LA       C = DO      E* = 
e|-0-|       e|-0-|         e|-x-|
B|-2-|       B|-1-|         B|-x-|
G|-2-|       G|-0-|         G|-9-|
D|-2-|       D|-2-|         D|-9-|
A|-0-|       A|-3-|         A|-7-|
E|-x-|       E|-x-|         E|-x-|


 - ACLARACION:    LOS ACORDES QUE TIENEN ESTRELLITA [*]
SE TOKAN LAS 3 CUERDAS NADA MAS (los del final) -
ej: E* -> Mi en otro tono (nose como sellama el acorde..)


les debo la parte del punteo del final, pero se complica
suerte loco :D


ELIO

            
            
Suggest correction
Creating personal tab
Creating personal tab
You can edit any tab online and save it as your Personal.

You can edit, replace or remove any tab part or add personal notes – all changes will be seen only by you.

Personal tabs can be accessed anytime from any device, even offline.
Learn more »
Give kudos to tab author, rate the tab!
1 2 3 4 5
comments
print report bad tab
guest
Wanna post a correction for this tab? Suggest correction