Oops, an error
Loading. Please wait.

Sube A Mi Cama tab

version 1
version 1

Whole song

16 views 1 this week
no commentswrite comment
1 2 3 4 5
3 more votes to show rating
add to favorites
×
Save as Personal and add changes to this tab that will be seen only by you. Learn more ›
×
You can save this tab as Personal to edit and correct it or add notes. All changes will be seen only by you. Learn more »
launch autoscroll
font size
0
reset
how to read this tab
guitar tuner
edit
Autoscroll
slow
fast
+/-
esc
set tempo
stop
  A                          F#m      A                          F#m
e|-0---------------|-0--2------------|-0---------------|-0--2------------|
B|-----3---2-------|-------3-2h3-2h3-|-----3---2-------|-------3-2h3-2h3-|
G|-----------------|-----------------|-----------------|-----------------|
D|-----------------|-----------------|-----------------|-----------------|
A|-----------------|-----------------|-----------------|-----------------|
E|-----------------|-----------------|-----------------|-----------------|

  G6
e|-0---------------|-0--2------------|-0---------------|-0--2------------|
B|-----3---2-------|-------3-2h3-2h3-|-----3---2-------|-------3-2h3-2h3-|
G|-----------------|-----------------|-----------------|-----------------|
D|-----------------|-----------------|-----------------|-----------------|
A|-----------------|-----------------|-----------------|-----------------|
E|-----------------|-----------------|-----------------|-----------------|

  Dadd9                               E
e|-0---------------|-0--2------------|-0---------------|-0--2------------|
B|-----3---2-------|-------3-2h3-2h3-|-----3---2-------|-------3-2h3-2h3-|
G|-----------------|-----------------|-----------------|-----------------|
D|-----------------|-----------------|-----------------|-----------------|
A|-----------------|-----------------|-----------------|-----------------|
E|-----------------|-----------------|-----------------|-----------------|

  A       Asus2 Asus4      Asus2      A       Asus2 Asus4      Asus2
e|-----------------|-----------------|-----------------|-----------------|
B|-2---2-----0---3-|----3---0-0------|-2---2-----0---3-|----3---0-0------|
G|-2---2-----2---2-|----2---2-2------|-2---2-----2---2-|----2---2-2------|
D|-2---2-----2---2-|----2---2-2------|-2---2-----2---2-|----2---2-2------|
A|-0---0-----0---0-|----0---0-0------|-0---0-----0---0-|----0---0-0------|
E|-----------------|-----------------|-----------------|-----------------|

  A       Asus2 Asus4      Asus2      A       Asus2 Asus4      Asus2
e|-----------------|-----------------|-----------------|-----------------|
B|-2---2-----0---3-|----3---0-0------|-2---2-----0---3-|----3---0-0------|
G|-2---2-----2---2-|----2---2-2------|-2---2-----2---2-|----2---2-2------|
D|-2---2-----2---2-|----2---2-2------|-2---2-----2---2-|----2---2-2------|
A|-0---0-----0---0-|----0---0-0------|-0---0-----0---0-|----0---0-0------|
E|-----------------|-----------------|-----------------|-----------------|
  Luci dulce y fiel, vuelves a bajar,

  Dmaj7                     D         A       Asus2 Asus4      Asus2
e|-2---2-----2---2-|----2---2---2----|-----------------|-----------------|
B|-2---2-----2---2-|----2---3---2----|-2---2-----0---3-|----3---0-0------|
G|-2---2-----2---2-|----2---2---2----|-2---2-----2---2-|----2---2-2------|
D|-0---0-----0---0-|----0---0---0----|-2---2-----2---2-|----2---2-2------|
A|-----------------|-----------------|-0---0-----0---0-|----0---0-0------|
E|-----------------|-----------------|-----------------|-----------------|
dame más no puedo verte débil...

           E   F#m  A
Líneas de sexo rápido,
           E     F#m    A
todas las calles para huir,
            E    F#m   A Bm
y creo que aún te necesito...

A   Asus2     Asus4  Asus2 A   Asus2     Asus4  Asus2

A   Asus2     Asus4  Asus2
Luci dulce y fiel,
A    Asus2  Asus4    Asus2
vuelves a bajar,
Dmaj7              D   Dmaj7      A   Asus2     Asus4  Asus2
caes en la mitad oscura y no hay nadie...

            E    F#m  A
Tiempos de sed y cambio,
          E    F#m  A
mimo sin fe y desafío,
            E    F#m   A Bm
y creo que aún te necesito...

                D
Si vienes a por mi los sueños volverán,
                A
si vienes mis pupilas de nuevo se abrirán,
                D
desnúdame otra vez empújame a sentir
                 A
y dime que este lunes no es sólo un día más.
          Bm     F#m  A
Sube a mi cama esta mañana...

esta parte se repite sobre el riff de las estrofas

  A       Asus2 Asus4      Asus2      A       Asus2 Asus4      Asus2
e|-0---------------|-0--2------------|-0---------------|-0--2------------|
B|-----3---2-------|-------3-2h3-2h3-|-----3---2-------|-------3-2h3-2h3-|
G|-----------------|-----------------|-----------------|-----------------|
D|-----------------|-----------------|-----------------|-----------------|
A|-----------------|-----------------|-----------------|-----------------|
E|-----------------|-----------------|-----------------|-----------------|

  Dmaj7                     D         A       Asus2 Asus4      Asus2
e|-0---------------|-0--2------------|-0---------------|-0--2------------|
B|-----3---2-------|-------3-2h3-2h3-|-----3---2-------|-------3-2h3-2h3-|
G|-----------------|-----------------|-----------------|-----------------|
D|-----------------|-----------------|-----------------|-----------------|
A|-----------------|-----------------|-----------------|-----------------|
E|-----------------|-----------------|-----------------|-----------------|


           E   F#m  A
Líneas de sexo rápido,
           E     F#m    A
todas las calles para huir,
            E    F#m   A Bm
y creo que aún te necesito...

                D
Si vienes a por mi los sueños volverán,
                A
si vienes mis pupilas de nuevo se abrirán,
                D
desnúdame otra vez empújame a sentir
                 A
y dime que este lunes no es sólo un día más.
                D
Si vienes a por mi los sueños volverán,
                A
si vienes mis pupilas de nuevo se abrirán,
                D
desnúdame otra vez empújame a sentir
                 A
y dime que este lunes no es sólo un día más.,
          Bm     F#m  A
Sube a mi cama esta mañana... oh yeah

          Bm     F#m  A
Sube a mi cama esta mañana...
          Bm     F#m  A
Sube a mi cama esta mañana... oh yeah

  A                          F#m      A                          F#m
e|-0---------------|-0--2------------|-0---------------|-0--2------------|
B|-----3---2-------|-------3-2h3-2h3-|-----3---2-------|-------3-2h3-2h3-|
G|-----------------|-----------------|-----------------|-----------------|
D|-----------------|-----------------|-----------------|-----------------|
A|-----------------|-----------------|-----------------|-----------------|
E|-----------------|-----------------|-----------------|-----------------|

  A                          F#m      A
e|-0---------------|-0--2------------|-0---------------||
B|-----3---2-------|-------3-2h3-2h3-|-2---------------||
G|-----------------|-----------------|-2---------------||
D|-----------------|-----------------|-2---------------||
A|-----------------|-----------------|-0---------------||
E|-----------------|-----------------|-----------------||

            
            
Suggest correction
Creating personal tab
Creating personal tab
You can edit any tab online and save it as your Personal.

You can edit, replace or remove any tab part or add personal notes – all changes will be seen only by you.

Personal tabs can be accessed anytime from any device, even offline.
Learn more »
Give kudos to tab author, rate the tab!
1 2 3 4 5
comments
print report bad tab
guest
Wanna post a correction for this tab? Suggest correction