Oops, an error
Loading. Please wait.

Al Que He Sangrando bass

88 views 1 this week
no commentswrite comment
1 2 3 4 5
3 more votes to show rating
add to favorites
×
Save as Personal and add changes to this tab that will be seen only by you. Learn more ›
×
You can save this tab as Personal to edit and correct it or add notes. All changes will be seen only by you. Learn more »
launch autoscroll
font size
0
reset
guitar tuner
edit
Autoscroll
slow
fast
+/-
esc
set tempo
stop
Al que he sangrado  -  La Renga

Bueno esta versión la saque de Insoportablemente vivo,
 que no se escucha muy bien y esto es masomenos lo que pude sacar,
 cualquier duda: bass_absoluto@


Intro
G-------------------
D-------------------
A-55555555555555555-
E-------------------


Base
Dame lo que me falta de silencio para contestar,

G-------------------------------
D-------------------------------    x2
A-2-22-345-05-75-----345?-75-75-
E----------------33-5-----------


a mi corazón que ya rebalsa de mi pecho,a mi gran amor,
G-----------------------------------
D-----------------------------------
A-----------3-33-33335320-7---------
E-0-00-5-55--------------------5-55-


al que he
 sangrado de utopías, de locuras y agonías,
G----------------------
D----------------------
A-3-33-2-22-0-00-3-53--
E--------------------5-

¿qué más sé? yo no tengo la respuestade por qué los traté así.
G---------------------------
D---------------------------
A----------5555555----------  con ritmo
E-3333333----------0000000?


Solo
G-------
D-------
A-------  siguiendo a la bateria
E-0-000?

Hace eso un par de veces y después hace la primera
parte de la base x2
Como la parte ?dame lo que me falta de silencio??


Repitetodo de vuelta el tema


Segundo solo

Hace la primera base x4 (?dame lo que me falta de silencio??)
Final:


G-------------
D-------------
A------------- x3
E-0-3-5-5-3-0-


         Hit-hat de la bateria
G---------------------------------
D---------------------------------
A---------------------------------
E-0-3-5-------------------------0-

            
            
Suggest correction
Creating personal tab
Creating personal tab
You can edit any tab online and save it as your Personal.

You can edit, replace or remove any tab part or add personal notes – all changes will be seen only by you.

Personal tabs can be accessed anytime from any device, even offline.
Learn more »
Give kudos to tab author, rate the tab!
1 2 3 4 5
comments
print report bad tab
guest
Wanna post a correction for this tab? Suggest correction