Oops, an error
Loading. Please wait.

Cristal De Zirconio tab

41 views 1 this week
no commentswrite comment
1 2 3 4 5
3 more votes to show rating
add to favorites
×
Save as Personal and add changes to this tab that will be seen only by you. Learn more ›
×
You can save this tab as Personal to edit and correct it or add notes. All changes will be seen only by you. Learn more »
launch autoscroll
font size
0
reset
how to read this tab
guitar tuner
edit
Autoscroll
slow
fast
+/-
esc
set tempo
stop
Cristal de zirconio


Intro:A5 C5 D5 (muy poca distorsion)
      A5 C5 B5


Sigue intro:

Mira en el cristal, lo viejo que está el mundo
el paso nuevo igual habrá que dar.
Despejado adelante de todos los sismos
hacia nosotros mismos irá lo que vendrá,
                A5(con distorsion)
irá lo que vendrá...

C5  D5

Riff:

e|------------------------------5h7-5-------------|
b|----5-8-7-5-----5~~-5-8-7-5---------8-7-7h8-----|
g|------------7-7-------------7-------------------|  X2
d|------------------------------------------------|
a|------------------------------------------------|
E|------------------------------------------------|


(1)
E5     D5 C#5 A5 (lo mismo hasta el final)
El apocalipsis llega hasta tu puerta
y ese que te está soñando, pronto despertará
en esas tempestades, hay quien soporta la vigilia
quizás la llave de tu alma, abrirá el portal.

E5 C5 D5     X2  (Como en el intro pero en ves de A5 es E5)
E5 C5 B5


Con Intro:
Y suelto el espejismo, de la vieja era
caerán los muros de tu visión.
Sos el que así lo quiso, y ahora que ya lo sabés
mira el reflejo en el cristal, en el cristal...

C5 D5

Riff
Solo:

E5   D5 C#5 A5   X4

D5 C#5 A5

E5   D5 C#5 A5   X4


E5 C5 D5     X2  (Como en el intro pero en ves de A5 es E5)
E5 C5 B5


Con Intro:
Mira el cristal, el mundo terminado
el sólo te ha esperado para ver al final
que despejado adelante de todos los sismos
hacia nosotros mismos irá lo que vendrá,
irá lo que vendrá...

C5 D5

Riff

(1)
El apocalipsis llega hasta tu puerta
y ese que te está soñando, ¡pronto despertará!

E5   D5 C#5 A5   X4

D5 C#5 A5

E5


Final

e|---------------------|
b|----5-8-7-5-----5~~--|
g|------------7-7------|(Lento)
d|---------------------|
a|---------------------|
E|---------------------|


Acordes usados en intro:

     A5    C5   D5   B5
e|---------------------|
b|---2----5----7----4--|
g|---2----5----7----4--|
d|---2----5----7----4--|
a|---0----3----5----2--|
E|---------------------|


Dedicado a l.m.d.s y a los pibes rengueros de cipo!!!!

            
            
Suggest correction
Creating personal tab
Creating personal tab
You can edit any tab online and save it as your Personal.

You can edit, replace or remove any tab part or add personal notes – all changes will be seen only by you.

Personal tabs can be accessed anytime from any device, even offline.
Learn more »
Give kudos to tab author, rate the tab!
1 2 3 4 5
comments
print report bad tab
guest
Wanna post a correction for this tab? Suggest correction