Oops, an error
Loading. Please wait.

Desnudo Para Siempre tab

169 views 1 this week
no commentswrite comment
1 2 3 4 5
3 more votes to show rating
add to favorites
×
Save as Personal and add changes to this tab that will be seen only by you. Learn more ›
×
You can save this tab as Personal to edit and correct it or add notes. All changes will be seen only by you. Learn more »
launch autoscroll
font size
0
reset
how to read this tab
guitar tuner
edit
Autoscroll
slow
fast
+/-
esc
set tempo
stop
introduccion:

    B5                 B5                B5
1|----------------------------------------
2|----------------------------------------
3|----------------------------------------
4|--------------------------------------4-
5|--2-0-2-0-2-0-2-2-0-/-2-0-2-0-2-0-2-2-/-
6|----------------------------------------

                       B5                 D5
1|---------------------------------------------------
2|---------------------------------------------------
3|---------------------------------------------------
4|---------------------------------------------------
5|--2-0-2-0-2-0-2-2-0-/-2-0-2-0-2-0-2-2-0-/-0-2-5-5-0
6|---------------------------------------------------

     D5
1|-----------------------------------|
2|-----------------------------------|
3|-----------------------------------|
4|-----------------------------------|
5|---0-2-5-5-0-0-2-5-0-0-5-0-0-5-0---|
6|-----------------------------------|

B5         E5
La noche aspira
       B5             E5
A guardarme algún misterio
B5           E5
Y como un extraño
 B5          E5
salgo a caminar
         B5           E5
Por las calles silenciosas
       B5          E5
Del suburbio va mi alma
    B5             E5
Soltaria entre el mundo
      B5         E5
Y le fe de las viejas.


INTER:sol( lleva un riff en pentatonicas sobre sol)

D5                                       G5  B-C-C#-D
  Buenas noches me digo y me invito a beber.
                              G5    B-C-C#-D
Estamos solos me dije y te advierto.
                              G5     B-C-C#-D
De nada sirve mentirse a uno mismo
                                          G5
El propio espejo y la puerta saber quien soy
       D5               B5
Se abrió y me dejó desnudo para siempre.

INTER: riff

Salí por el paso
mas metálico de la noche
a un viaje
de encuentro con mi extraño
y la magia cautiva de su interior
detonó la bomba
mas preciada de los sentimientos
al rozar con mi alma.

INTER

Buenas noches me digo y me invito a beber.
Estamos solos me dije y te advierto.
De nada sirve mentirse a uno mismo
El propio espejo y la puerta saber quien soy
Se abrió y me dejó despedazado por mil partes.

INTER

Buenas noches me digo y me invito a beber.
Estamos solos me dije y te advierto.
De nada sirve mentirse a uno mismo
El propio espejo y la puerta saber quien soy
Se abrió y me dejó desnudo para siempre.

FINAL: riff del principio

nota:cualquier tema de la renga que necesiten manden un mail a:
elsapo_mart@
las partes que le faltan al tema las tengo.
si tienen una banda puedo ayudar a arreglarlos.
saludos
Suggest correction
Creating personal tab
Creating personal tab
You can edit any tab online and save it as your Personal.

You can edit, replace or remove any tab part or add personal notes – all changes will be seen only by you.

Personal tabs can be accessed anytime from any device, even offline.
Learn more »
Give kudos to tab author, rate the tab!
1 2 3 4 5
comments
print report bad tab
guest
Wanna post a correction for this tab? Suggest correction