Oops, an error
Loading. Please wait.

El Hombre De La Estrella tab

version 3
version 3

Whole song

34 views 1 this week
no commentswrite comment
1 2 3 4 5
3 more votes to show rating
add to favorites
×
Save as Personal and add changes to this tab that will be seen only by you. Learn more ›
×
You can save this tab as Personal to edit and correct it or add notes. All changes will be seen only by you. Learn more »
launch autoscroll
font size
0
reset
how to read this tab
guitar tuner
edit
Autoscroll
slow
fast
+/-
esc
set tempo
stop
Intro: Riff1 + Riff2 x2

Riff1
e|---------------------5b--2-|
B|---5----7p6p5--------5b--2-|
G|-6---6--------6p5p4--------|
D|---------------------------|
A|---------------------------|
E|---------------------------|

Riff2                             x2
e|---------------------------------|
B|---------------------------------|
G|---------------------------------|
D|-----4-4----4-4----4-4-----7-9---|
A|---2-4-4--2-4-4--2-4-4-----7-9---|
E|---0-2-2--0-2-2--0-2-2-0---5-7---|


F#5
Son tan distintos el sonido y el viento
         Em
y sin embargo en algo se parecen
B5
ni el mejor ojo los puede ver
      F#5
pero estan porque se siente.


F#5
De esa textura tu alma pario
        Em
lo que era todo tu aliento
   B5
la rabia nunca murio
         F#5
cuando mataron al perro


A5            Em                B5
Dame de esa espuma, contagia valor
A5            Em           B5
que no haya tumba, ni nada que lo calla
A5               Em           B5
se oye como el viento y no se ve


A5         Em            F#5
se mete adentro y da batalla.

Intro

F#5
Un salvaje que no para
    Em
quiere convertirse en mi
  B5
no me quiere fiel ni falso
       F#5
solo bestia para vivir

De esa bravura tu sueño pario
        Em
lo que aun sostiene mi aliento
    B5
la rabia nunca murio
          F#5
cuando mataron al perro

A5            Em                B5
Dame de esa espuma, contagia valor
A5            Em           B5
que no haya tumba, ni nada que lo calla
A5               Em           B5
se oye como el viento y no se ve
A5         Em            F#5
se mete adentro y da batalla.

Intro

F#5
Como guia el cielo regalo
   Em
una estrella para tu frente
B5                                F#5
para que sin perder la ternura jamas

aprendieras a endurecerte.

A5            Em                B5
Dame de esa espuma, contagia valor
A5            Em           B5
que no haya tumba, ni nada que lo calla
A5               Em           B5
se oye como el viento y no se ve
A5         Em            F#5
se mete adentro y da batalla.

Solo:

e|------5------------------------------------------------------------|
B|---------5-5b-5br--5b--5b-5br-------------5-5---7--7-/10~-10~-10~--|
G|--5b6----5-5b-5br--5b--5b-5br---------4h6---5---5--5-/11~-11~-11~--|
D|-------------------------------7p4--7------------------------------|
A|-------------------------------------------------------------------|
E|-------------------------------------------------------------------|

e|-----------------------14-----14~-----14----14~------------|
B|-/13--13--13~-13~13~------15b-----15b-----15-----17p14-----|
G|-/14--14-----------------------------------------------16b-|
D|-----------------------------------------------------------|
A|-----------------------------------------------------------|
E|-----------------------------------------------------------|

e|---------------------------|
A|17b--17b-17b--17--17--14---|
B|16b--16r-16r--16r-16r-14br-|
G|---------------------------|
A|---------------------------|
E|---------------------------|

e|---------------------19-19-19-17-------19-19-19-17-------19-19-19-17-|
B|-17--17-17-17--17-17-------------19-17-------------19-17-------------|
G|---------------------------------------------------------------------|
D|---------------------------------------------------------------------|
A|---------------------------------------------------------------------|
E|---------------------------------------------------------------------|

e|--------19-19-19-17-------19-19-19-17-------19-19-19-17-------|
B|-19-17--------------19-17-------------19-17-------------19-17-|
G|--------------------------------------------------------------|
D|--------------------------------------------------------------|
A|--------------------------------------------------------------|
E|--------------------------------------------------------------|

e|19-19-19-17-------19-19-19-17-|
B|------------19-17-------------|
G|------------------------------|
D|------------------------------|
A|------------------------------|
E|------------------------------|

e|----17-19b-19b-19p17--19b-----------------------------------------|
B|-19-------------------------14---17p14----------------------------|
G|----------------------------------------16p14--16p14--------------|
D|------------------------------------------------------16p14--14~-|
A|------------------------------------------------------------------|
E|------------------------------------------------------------------|

Riff1

E5 F#5 F#5

            
            
Suggest correction
Creating personal tab
Creating personal tab
You can edit any tab online and save it as your Personal.

You can edit, replace or remove any tab part or add personal notes – all changes will be seen only by you.

Personal tabs can be accessed anytime from any device, even offline.
Learn more »
Give kudos to tab author, rate the tab!
1 2 3 4 5
comments
print report bad tab
guest
Wanna post a correction for this tab? Suggest correction