Oops, an error
Loading. Please wait.

El Juicio Del Ganzo bass

145 views 3 this week
no commentswrite comment
1 2 3 4 5
3 more votes to show rating
add to favorites
×
Save as Personal and add changes to this tab that will be seen only by you. Learn more ›
×
You can save this tab as Personal to edit and correct it or add notes. All changes will be seen only by you. Learn more »
launch autoscroll
font size
0
reset
guitar tuner
edit
Autoscroll
slow
fast
+/-
esc
set tempo
stop
intro
G|--------------------|
D|--------------------|
A|-------5------------|
E|-3--0---------------|

G|--------------------|
D|--------------------|
A|------55555503555H75|
E|-3--0---------------|

G|--------------------|
D|--------------------|
A|--------------------|
E|578-88-578-88-583788|

G|--------------------|
D|--------------------|
A|--------------------|
E|3-3788-578-88-578-88|

G|---------------------|
D|---------------------|
A|--5555555555H75-55---|
E|58-------------------|

       de tanto andar por la cornisa
G|----------------------------------|
D|----------------------------------|
A|--------------35-5-55553H53H5-----|
E|53-3-3320-0-00--------------------|

  tal vez un dia pueda caeeeer

G|----------------------------------|
D|----------------------------------|
A|--------------35-5-55553H53H5-----|
E|53-3-3320-0-00--------------------|

   de tanto confiarme de mi suerte

G|--------------------|
D|--------------------|
A|--------------------|
E|578-88-578-88-583788|

 y mis conquistas en la percha de un bar

G|--------------------|
D|--------------------|
A|--------------------|
E|3-3788-578-88-578-88|

  termine despuees
G|---------------------|
D|---------------------|
A|--5555555555H75-55---|
E|58-------------------|

sol        mi               re
de no aceptar el oficio de santo
sol        mi         re
y por reirme de tu tonta cancion de amor
 do                            sol
de no tranzar ni con el cielo ni el infierno
            do             re
tal vez confisquen mi corazon

  Quien compartira mi desconsuelo
G|----------------------------------|
D|----------------------------------|
A|-------3-3-3305-5-550-3s2-03s2-3-2|
E|5-5-550---------------------------|

y mi destierro de civilizacion

G|----------------------------------|
D|----------------------------------|
A|-------3-3-3305-5-550-3s2-03s2-3-2|
E|5-5-550---------------------------|

quiza muera odiandote y entendiendote a la vez

G|----------------------------------|
D|----------------------------------|
A|-------3-3-3305-5-550-3s2-03s2-3-2|
E|5-5-550---------------------------|

Que de tanto que pude haber hecho por vos

G|----------------------------------|
D|----------------------------------|
A|-------3-3-3305-5-5555555555------|
E|5-5-550---------------------------|
  entregues mi alma al mejor postor
G|----------------------------------|
D|----------------------------------|
A|--------------555555555575--------|
E|8-88-578-88-58--------------------|


De tanto jugar a la cigarra,
tal vez me sorprenda el invierno,
de tanto fiarme de tener
alguien siempre a mano,
sin pan y sin torta, la fiesta termine despues.

Y uno recoge lo que siembra, dicen,
y es peligroso el barco sin timón,
pero quien ponga manos en este juicio,
nunca sabrá que satisfecho el ganso murió.

Y quién compartirá mi desconsuelo
y mi destierro de civilización.
Quizás muera odiándote y entendiéndote a la vez,
que de tanto que pude haber hecho por vos,
entregues mi alma, al mejor postor.


Bueno gente es la primer tab que subo, espero que les sirva
un abrazo a todos y aguante el rock!!!

            
            
Suggest correction
Creating personal tab
Creating personal tab
You can edit any tab online and save it as your Personal.

You can edit, replace or remove any tab part or add personal notes – all changes will be seen only by you.

Personal tabs can be accessed anytime from any device, even offline.
Learn more »
Give kudos to tab author, rate the tab!
1 2 3 4 5
comments
print report bad tab
guest
Wanna post a correction for this tab? Suggest correction