Oops, an error
Loading. Please wait.

En Pie bass

84 views 1 this week
no commentswrite comment
1 2 3 4 5
3 more votes to show rating
add to favorites
×
Save as Personal and add changes to this tab that will be seen only by you. Learn more ›
×
You can save this tab as Personal to edit and correct it or add notes. All changes will be seen only by you. Learn more »
launch autoscroll
font size
0
reset
guitar tuner
edit
Autoscroll
slow
fast
+/-
esc
set tempo
stop
despues de la viola entra

e-17s--3/ hace s un slis hasta el traste 3
a-------/
d-------/
g-------/

verso

e-0---0-3-3--3-----------------5-4-0-/
a--------------4----4--5--5-5--------/
d------------------------------------/
g------------------------------------/


 pequeño arrglo

e--------------------------------0-/
a-7--7-----------------------------/
d------5-5--5---------------7-6----/
g-------------6---6--7-7-6---------/


final del verso arreglo

e-0--0-2-3-3--------------5-4-2-0-/
a-------------4--4--5-5-5---------/
d---------------------------------/
g---------------------------------/

 estribillo


e-3-3-3-3--0--0--0--3-3-3-3-----5-5-5--7--7-7-7-/
a----------------------------55-----------------/
d-----------------------------------------------/
g-----------------------------------------------/

no se si va esa nota ahi en la cuerda de A el (5)


otra parte de tocar el estribillo

e-3-3-3---0-0-0-3-3-3---5-5-5------------/
a-------------------------------5-5-5----/
d-------5-------------5-------7----------/
g-------------------------------------7--/

va ese arreglo de abajo

e---------------3-2-0-/
a-2----2-2--2-0-------//
d---------------------/
g---------------------/


bueno esta es mi premara tablatura
espero que sirva algun error corrigelanla y paselan ja

            
            
Suggest correction
Creating personal tab
Creating personal tab
You can edit any tab online and save it as your Personal.

You can edit, replace or remove any tab part or add personal notes – all changes will be seen only by you.

Personal tabs can be accessed anytime from any device, even offline.
Learn more »
Give kudos to tab author, rate the tab!
1 2 3 4 5
comments
print report bad tab
guest
Wanna post a correction for this tab? Suggest correction