Oops, an error
Loading. Please wait.

La Razón Que Te Demora Tab

version 1
version 1

Whole song

Interactive

4,882 views 9 this week
no commentswrite comment
1 2 3 4 5
2 more votes to show rating
add to favorites
launch autoscroll
font size
0
reset
how to read this tab
guitar tuner
Autoscroll
slow
fast
+/-
esc
set tempo
stop
Help us to improve Ultimate-Guitar.com Take our survey!
×
Bm         D          G         D
1 -----2------------2^3^2-------3-------------2^3^2----------------|
2 -------3--------3-------3-------0---------3-------3--------------|
3 ---------4----2-------------------0-----2------------------------|
4 ---4--------0-------------------------0--------------------------|
5 -2--------------------------2------------------------------------|
6 --------------------------3------------------------------X3------|
RIFF 2
  F#m     A       F#m     Bm       G         D
1 --------------------------------2-----------3------------2^3^2---|
2 -----2---------2---------2--------3-----------0--------3-------3-|
3 -----2---------2---------2----------4-----------0----2-----------|
4 -----4---------2---------4----4--------------------0-------------|
5 ---4---------0---------4----2-------------0----------------------|
6 -2------0--0------0--2------------------3------------------------|
   F#m
1 -----------------------------------------------------------------|
2 ---------2-2--------2-2------------------------------------------|
3 ---------2-2--------2-2------------------------------------------|
4 --4----4-4-4--4---4-4-4------------------------------------------|
5 --4----4------4---4----------------------------------------------|
6 --2----2------2---2----------------------------------------------|

Intro=Riff1 x 1
Riff 1
Hay un destino que no tiene pruebas

Por eso ésta historia
Riff 1
Puede que muera con una verdad

Olvidada en tu memoria
Riff2
Será un camino que no tiene huella

La suerte que le ha tocado a la estrella

que te ha de guiar
Bm                   D
Hay un siempre para la batalla
      G           D
Y la razón que te demora
Bm                    D
Si hay una sombra para cada luz
     G            D
Corras a donde corras
F#m                    A
Quizá el destino sea una mentira
F#m                    Bm
Quizá lo único que quería la vida
G         D       F#m
Era terminar con vos

B-|5 - A5 - B5 - D5 - E5
B-|5 - A5 - B5 - E5 - D5
B-|5 - A5 - B5 - D5 - E5
B-|5 - A5 - B5 - E5 - D5

B5                D5
La ruta sigue más allá         ligado
       G5              D5      B5 ^ C5
De las luces de la autopista
B5                      D5
Secando al ojo de la lágrima
     G5       D5      B5 ^ C5
Te perderás de vista
B5                      D5
Como un relámpago en la fría noche
    G5     D5       B5 ^ C5
Cruzarás los abismos
B5                    D5
Esos que guardan a la sombra
     G5              D5
Que te ocultan de vos mismo

F5                    A5
Hay algo extraño en el otro lado
F5                    B5
Que te teme y te dá la mano
G5     D5           F#5 - E5 - D5 - C#5 - B5
Para llegar hasta vos

Solo:

1--------------------------------------------------------------------|
2------------10^(12)^10p8---------------s10--12-12-12-12--10--12--10-|
3-7/(8)-9-7---------------9^(11)p7---7v------------------------------|
4-7/(8)----------------------------9---------------------------------|
5--------------------------------------------------------------------|
6--------------------------------------------------------------------|

1-----------------------------5---------------------------------------|
27~-10-2s7-7-7--6-5-3-5-3--5/(7)-5^(7)^5^(7)^5------------------------|
3----------------------------------------------s7---------------s7v---|
4-------------------------------------------------9-7-9p7-----------9-|
5---------------------------------------------------------7p5-7p5-----|
6---------------------------------------------------------------------|

1-------------------7h9h10-9-7----------17-15-14-14------------|
2------------7h8h10------------15h17-15------------------------|
3-------6h7h9--------------------------------------------------|
4----7h9-------------------------------------------------------|
5-s10----------------------------------------------------------|
6--------------------------------------------------------------|

1 ------------------------------------------------------------|
2 --------------17p15-14h15-14h15----14-----14----------------|
3 --------------------------------16-----16-----16------------|
4 ------------------------------------------------------------|
5 ------------------------------------------------------------|
6 ------------------------------------------------------------|

1 ---------------------------------------------------------------|
2 ---------------------------------------------------------------|
3 -14/(16)-14/(16)-14^(16)^14-11---------14--------------11------|
4 --------------------------------14/(16)---14^16)^14-12-14~-----|
5 ---------------------------------------------------------------|
6 ---------------------------------------------------------------|

B----------------------------------------------------------------|5 - A5 - B5 - D5 - E5
B----------------------------------------------------------------|5 - A5 - B5 - E5 - D5
B----------------------------------------------------------------|5 - A5 - B5 - D5 - E5
B----------------------------------------------------------------|5 - A5 - B5 - E5 - D5

Riff1
Hay un destino que no tiene pruebas

Por eso ésta historia
Riff1
Puede que muera con una verdad

Olvidada en tu memoria
Riff2
Será un camino que no tiene huella

La suerte que le ha tocado a la estrella

que te ha de guiar

B5                    D5
Habrá un siempre para la batalla
     G5            D5    B5 ^ C5
Y la razón que te demora
B5                 D5
Si hay una sombra para cada luz
     65         D5
Corras a donde corras
F#5                    A5
Quizá el destino sea una mentira
F#5                    B5
Quizá lo único que quería la vida
G5     D5          F#5
Era terminar con vos
B-|5 - A5 - B5 - D5 - E5
B-|5 - A5 - B5 - E5 - D5
B-|5 - A5 - B5 - D5 - E5
B-|5 - A5 - B5 - E5 - D5
B-|5 - A5 - B5 - D5 - E5
B-|5 - A5 - B5 - E5 - D5
B-|5 - A5 - B5 - D5 - E5
B-|5 - A5 - B5 - E5 - D5
Bm Fm
Suggest correction
Give kudos to tab author, rate the tab!
1 2 3 4 5
comments
print report bad tab
guest
You may want to rate the tab now too:
select rating
Wanna post a correction for this tab? Suggest correction