Oops, an error
Loading. Please wait.

La Vida, Las Mismas Calles tab

version 2
version 2

Whole song

16 views 1 this week
no commentswrite comment
1 2 3 4 5
3 more votes to show rating
add to favorites
×
Save as Personal and add changes to this tab that will be seen only by you. Learn more ›
×
You can save this tab as Personal to edit and correct it or add notes. All changes will be seen only by you. Learn more »
launch autoscroll
font size
0
reset
how to read this tab
guitar tuner
edit
Autoscroll
slow
fast
+/-
esc
set tempo
stop
BUENO...
AQUI LES DEJO MI PRIMERA TRANSCRIPCION DE ESTE TEMASOO DE LA RENGA
NO ESTA DEL TODO BIEN...PERO CREO QUE ESTA PASABLE
 _                 _
-_TOCAR BIEN RAPIDO_-


EL INTRO ES IGUAL QUE EL TEMA..SOLO QUE MAS LENTO.-


e|-------------------------------------------------------------------
B|-------------------------------------------------------------------
G|-------------------------------------------------------------------
D|-------------------------------------------------------------------
A|-------------2--2p1-2-4-5p4------------2--2p1-2-4-5p4------------2-
E|--0h3-0--0-0-0--------------0h3-0--0-0-0--------------0h3-0--0-0-0-

e|-------------------------------------------------------------------
B|-------------------------------------------------------------------
G|-------------------------------------------------------------------
D|-------------------------------------------------------------------
A|-2p1-2-4-5p4------------2-2-2--------------------------------------
E|-------------0h3-0--0-0-0-0-0--------------------------------------

   E5 (palm-muting)
  Hoy me devuelvo al infinito

  porque ya no me pertenezco

  hoy me devuelvo de donde vengo

  para poder continuar

e|-------------------------------------------------------------------
B|-------------------------------------------------------------------
G|-------------------------------------------------------------------
D|-------------------------------------------------------------------
A|-------------2--2p1-2-4-5p4------------2--2p1-2-4-5p4------------2-
E|--0h3-0--0-0-0--------------0h3-0--0-0-0--------------0h3-0--0-0-0-

e|-------------------------------------------------------------------
B|-------------------------------------------------------------------
G|-------------------------------------------------------------------
D|-------------------------------------------------------------------
A|-2p1-2-4-5p4------------2-2-2--------------------------------------
E|-------------0h3-0--0-0-0-0-0--------------------------------------

   E5 (palm-muting)
  Que es lo que dicen esas voces

  si las estrellas no hablan

  siempre alguien del infinito, me llama

                  C5                  D5
  y todo esta tan aca aca aca aca, aca aca aca aca!

   E5 (palm-muting)
  Toda la vida (rift 1), las mismas calles (rift 1)

  toda la vida (rift 1), las mismas calles (rift 1 x2)

  toda la vida (rift 1), las mismas calles (rift 1)

  toda la vida (rift 1), las mismas calles (rift 1 x2)

e|---------------------------------------------------
B|---------------------------------------------------
G|--5--7---8---7--5--7--8---7---/7-------------------
D|--x--x---x---x--x--x--x---x---/x-------------------
A|--7--9---10--9--7--9--10--9---/5-------------------
E|---------------------------------------------------

e|---------------------------------------------------
B|---------------------------------------------------
G|--5--7---8---7--5--7--8---7--5--7-------------------
D|--x--x---x---x--x--x--x---x--x--x-------------------
A|--7--9---10--9--7--9--10--9--3--5-------------------
E|---------------------------------------------------

< SOLO >

  Hoy doblo siempre en la misma esquina

  la esquina del infinito

  toda la vida las mimas calles

  y ya no puedo volver


  ¿Que es lo que mueve tu siempre?

  si siempre nunca te alcanza

  siempre alguien del infinito, me llama

                   C5                D5
  y todo esta tan aca aca aca aca, aca aca aca aca

E5 (palm-muting)
  Toda la vida (rift 1), las mismas calles (rift 1)

  toda la vida (rift 1), las mismas calles (rift 1 x2)

  toda la vida (rift 1), las mismas calles (rift 1)

  toda la vida (rift 1), las mismas calles (rift 1 x2)

e|---------------------------------------------------
B|---------------------------------------------------
G|--5--7---8---7--5--7--8---7---/7-------------------
D|--x--x---x---x--x--x--x---x---/x-------------------
A|--7--9---10--9--7--9--10--9---/5-------------------
E|---------------------------------------------------

e|---------------------------------------------------
B|---------------------------------------------------
G|--5--7---8---7--5--7--8---7--5--7-------------------
D|--x--x---x---x--x--x--x---x--x--x-------------------
A|--7--9---10--9--7--9--10--9--3--5-------------------
E|---------------------------------------------------

FINAL

e|-----------------------------
B|-----------------------------
G|-----------------------------
D|-----------------------------
A|--2p1-2-4-5p4-------------2--
E|---------------0h3-0--0-0-0--


  **//RIFT 1://**    **//RIFT 1://** x2

e|----------------   e|----------------
B|----------------   B|----------------
G|-----/9---------   G|-----/9--9-------
D|-----/x---------   D|-----/x--x-------
A|-----/7---------   A|-----/7--7-------
E|----------------   E|----------------


SALUDOS!!


~: Vibrato
b: Estirar
*: Armónicos
br: Estirar y volver
/: Deslizar
h: hammer on - martillo
p: pull of
Suggest correction
Creating personal tab
Creating personal tab
You can edit any tab online and save it as your Personal.

You can edit, replace or remove any tab part or add personal notes – all changes will be seen only by you.

Personal tabs can be accessed anytime from any device, even offline.
Learn more »
Give kudos to tab author, rate the tab!
1 2 3 4 5
comments
print report bad tab
guest
Wanna post a correction for this tab? Suggest correction