Oops, an error
Loading. Please wait.

Montaa Roja Tab

585 views 1 this week
no commentswrite comment
1 2 3 4 5
3 more votes to show rating
add to favorites
launch autoscroll
font size
0
reset
how to read this tab
guitar tuner
×
Best way to learn
"Montaa Roja"
Autoscroll
slow
fast
+/-
esc
set tempo
stop
Author
Difficulty
intermediate
Intro:

|-------------------------------------------------|
|------7----7-9-----------------------------------|
|-7~---7-9--7-9---7-9b10--9brp7-9-----------------|
|-7~-----9-------------------------9b*r9----7~*~--|
|-----------------------------------------9-------|
|-------------------------------------------------|

-------------------------------------|
-------------------------------------|
----------------------------7~---9/--|
--5-7~*~-5------------------7~---9/--|
-------------5--3-5--3---------------|
-----------------------5~------------|

Riff 1
|--------------------|
|--------------------|
|--7~~-9/------------|
|--7~~-9/------------|
|--------------------|
|--------------------|


Riff 2
|-------------------|
|-------------------|
|-------------------|
|-7b*r-5--5-7*-~----|
|-------7-----------|
|-------------------|

Riff 3
|------8-5-0-----------|
|--7-------------------|
|--7-------------------|
|----------------------|
|----------------------|
|----------------------|

Riff 4
|----------------------|
|----------------------|
|----------------------|
|----------------------|
|--6-5-3—5h3p5h3-------|
|----------------------|

 A5                 riff1
 Es tal vez como ver
 A5                  riff2
 como la vez primera
 A5                   riff3
 y queriendo atravesar
 A5                    riff4
 cruces de mil barreras

2)
A5          C5      G5       A5
 La Montaña Roja sangrada por mi
A5           C5        G5  A5
 un cañón al rio de mis venas
A5          C5      G5     A5
 la profundidad que se elevo
A5          C5     G5     D5
 llevara de mi lo que queda
 Riff 4
 Hacia las cumbres

 Riff 5
|------------------------------------------|
|------------------------------------------|
|-2-2-2-------2---2-2-2--------2-----------|
|-2-2-2-------2---2-2-2--------2-----------|x4
|-0-0-0-----3-0---0-0-0------3-0---3*------|
|-------3-0--------------3-0---------------|

(Todo con el riff 5)

 Yo pronto me vi crecer
 Hacia un cielo de estrellas
 y un trueno con tu voz
 roja pintó la arena

 2)
 Abrazado fuerte a mí donde voy
 hacia donde ya no hay fronteras
 la profundidad que se elevó
 llevara de mí lo que queda
 Riff 4
 Hacia las cumbres


 Solo: (Con base de Riff 5)

Escúchenlo bien. Hace un par de trémolos

|---------------------------------------------------------|
|---------------------------------------------------------|
|-7~-----7b~----7b-7~----7p9--7*~-----------5h7p5-4-------|
|-7~--------------------------------/5--7*----------7*----|
|---------------------------------------------------------|
|---------------------------------------------------------|

-------------------------------------------------15-15-15-15-|
---------------------------13*--15b~---15b--15b--------------|
-------------------------------------------------------------|
-------------------------------------------------------------|
-2/3~--5p3-5~--3h5p3-2---------------------------------------|
-----------------------5-------------------------------------|

-----------------------------------15h16p15h16p15----------------|
-17b-17b*--(17)--15-13-----15-13------------------15h16p15h16p15-|
-----------------------14----------------------------------------|
-----------------------------------------------------------------|
-----------------------------------------------------------------|
-----------------------------------------------------------------|

-------------------------------------------------15h16p15h16p15-|
-16p17h16p17-------------16p17h16p17-15h16p15h16----------------|
-------------13p12h13p12----------------------------------------|
----------------------------------------------------------------|
----------------------------------------------------------------|
----------------------------------------------------------------|

-------11-10/---------------------------------------------------|
------------------------------------7-5-------------------------|
---------------/5-7--7p5-7---7p5----7-5---12~--12-12--14~-14-14-|
-(2)------------------------------7-----------------------------|
-(0)------------------------------------------------------------|
----------------------------------------------------------------|

2)
(hace un silencio y engancha con C5)
 La Montaña Roja sangrada por mí
 un cañón al río de mis venas
 la profundidad que se elevó
 llevará de mí lo que queda
 Riff 4
 Hacia las cumbres

 Riff 1

 2)
 Abrazado fuerte a mí donde voy
 hacia donde ya no hay fronteras
 la profundidad que se elevó
 llevara de mí lo que queda
 Riff 4
 Hacia las cumbres


~: Vibrato
b: Estirar
*: Armonicos
br: Estirar y volver
/: Deslizar

HEAVYAGU·
Suggest correction
Give kudos to tab author, rate the tab!
1 2 3 4 5
comments
print report bad tab
guest
You may want to rate the tab now too:
select rating
Wanna post a correction for this tab? Suggest correction