Oops, an error
Loading. Please wait.

Un Tiempo Fuera De Casa tab

version 2
version 2

Whole song

19 views 1 this week
no commentswrite comment
1 2 3 4 5
3 more votes to show rating
add to favorites
×
Save as Personal and add changes to this tab that will be seen only by you. Learn more ›
×
You can save this tab as Personal to edit and correct it or add notes. All changes will be seen only by you. Learn more »
launch autoscroll
font size
0
reset
how to read this tab
guitar tuner
edit
Autoscroll
slow
fast
+/-
esc
set tempo
stop
NOTA:
()  : es estirar la cuerda hasta que lo indique el numero q esta dentro
      del paréntesis.
... :hacer una pausa
/   :arrastrar la cuerda (seria hacer slide)
s   : slide
p   : pull off (especie de ligado pero de forma descendente, 
      del puente hacia el clavijero)
h   : hamer on ( ligado ascendente), del clavijero hacia el puente)
^  : levantar la cuerda

************************************************************************

      D             A             G
lo dejaste y ahora estas arrepentido
D             A                 G
caminate y nunca encontraste el mio
D                A             G
no supiste enfrentar la realidad
D             A                 G
y los dias te hicieron comprender

que no era asi nena, no...

1)----------------------------------------------------------------|
2)--------^^^-----11-------------------------10(11)p8-------------|
3)-10^...-^^^--10------...-10-10(11)p8...-------------10p8--------|
4)----------------------------------------------------------------|
5)----------------------------------------------------------------|
6)----------------------------------------------------------------|

1)----------------------------------------------------------------|
2)-----------------12^...-12p10h12p10---14^14p12h14p12------------|
3)-9/11...-11-11-11-----------------------------------------------|
4)----------------------------------------------------------------|
5)----------------------------------------------------------------|
6)----------------------------------------------------------------|

1)----------------------------------|
2)-14^p12-14^----12^p10...-12p10/5--|
3)----------------------------------|
4)----------------------------------|
5)----------------------------------|
6)----------------------------------|

regresaste y ahora estas arrepentida
y volves pero no dejas de lado
las cosas que aprendiste alla afuera
y quisas hoy te vuelvas a marchar

1)-----------------------------------------------------------------------
2)------------------13^-13----13-----------------------------------11(10)
3)9/11v----15-14^...14^----14----14^p12h14p12h14p12-10v------------10 (9)
4)---------------------------------------------- -------10/12-10-12------
5)-----------------------------------------------------------------------
6)-----------------------------------------------------------------------

1)-------------------------------------------
2)-----12--------------14^p12h14p12h14p12h14-
3)-13^...-p11h13p11--------------------------
4)-------------------------------------------
5)-------------------------------------------
6)-------------------------------------------

SOLO DE SAXO :


regresaste y ahora estas arrepentida
y volves pero no dejas de lado
las cosas que aprendiste alla afuera
y quisas hoy te vuelvas a marchar

SOLO DE SAXO

temina en D

*************************************************************************
este tema es una masa, costo pero salio,... cualquier duda o corrección 
hacerla a federnr_la25@
bueno,...aguante La ReNgA!!!!!!!!!!!!
Suggest correction
Creating personal tab
Creating personal tab
You can edit any tab online and save it as your Personal.

You can edit, replace or remove any tab part or add personal notes – all changes will be seen only by you.

Personal tabs can be accessed anytime from any device, even offline.
Learn more »
Give kudos to tab author, rate the tab!
1 2 3 4 5
comments
print report bad tab
guest
Wanna post a correction for this tab? Suggest correction