Oops, an error
Loading. Please wait.

Amor Callado tab

44 views 1 this week
no commentswrite comment
1 2 3 4 5
3 more votes to show rating
add to favorites
×
Save as Personal and add changes to this tab that will be seen only by you. Learn more ›
×
You can save this tab as Personal to edit and correct it or add notes. All changes will be seen only by you. Learn more »
launch autoscroll
font size
0
reset
how to read this tab
guitar tuner
edit
Autoscroll
slow
fast
+/-
esc
set tempo
stop
    

    * Este es el requinto con que inicia la canción,
    también es el mismo que se toca en la parte de
    en medio. 
    
    ** Las 2 guitarras se tocan al mismo 
    tiempo; pero la 2da no muy se escucha, así que
    pon atención para que se coordinen bien, no 
    está difícil.


      Acordes: Re - Fa#m - Sol - La
               RE - FA#m - SOL - LA7


                 1ra. Guitarra
      
      e|---5/7-5---------------------------|
      B|---------7-5-7---7/8-5-8-8/12-10---|
      G|---------------7-------------------|
      D|-----------------------------------|
      A|-----------------------------------|
      E|-----------------------------------|


                 2da. Guitarra

      e|-----------------------------------|
      B|---7-------------------------------|
      G|-----7------4---4--6/7-6-----------|
      D|-------7--4---5--------------------|
      A|-----------------------------------|
      E|-----------------------------------|

  

             También puedes ponerle este.

      e|-----------------------------------|
      B|-----------------------------------|
      G|---6/7-6-4---4---3/4---4-6/7-6-----|
      D|-----------7---5-----5-------------|
      A|-----------------------------------|
      E|-----------------------------------|


* Es cuestión de que escuches la rola y le pongas el
arreglo de la 2da. guitarra que mas te guste.

** Gracias a mis hermanos de la Rondalla 'Voces'
por todo lo que he aprendido de ellos.

*** Dudas, comentarios, sugerencias, fotos, dinero...al correo.

Bytes !!

            
            
Suggest correction
Creating personal tab
Creating personal tab
You can edit any tab online and save it as your Personal.

You can edit, replace or remove any tab part or add personal notes – all changes will be seen only by you.

Personal tabs can be accessed anytime from any device, even offline.
Learn more »
Give kudos to tab author, rate the tab!
1 2 3 4 5
comments
print report bad tab
guest
Wanna post a correction for this tab? Suggest correction