Oops, an error
Loading. Please wait.

Amor Mio tab

version 2
version 2

Whole song

35 views 1 this week
no commentswrite comment
1 2 3 4 5
3 more votes to show rating
add to favorites
×
Save as Personal and add changes to this tab that will be seen only by you. Learn more ›
×
You can save this tab as Personal to edit and correct it or add notes. All changes will be seen only by you. Learn more »
launch autoscroll
font size
0
reset
how to read this tab
guitar tuner
edit
Autoscroll
slow
fast
+/-
esc
set tempo
stop
Requinto Del Intro:

            G#m                 C#7            F#                D#m
e|----------9---7-7-6-6-----------------------7-6--6----------------|
B|----6--7--------------9--7-9-7-6-------6-7-9-------9-9--7-9-7-6---|
D|-8---------------------------------6-8--------------------------8-|
G|------------------------------------------------------------------|
A|------------------------------------------------------------------|
E|------------------------------------------------------------------|

          E          A#          D#m
e|-------------6-7-6---6------------------|
B|--9-9-9-9--9-------9---6-9-7-6-7-6------|
D|-----------------------------------8-8--|
G|----------------------------------------|
A|----------------------------------------|
E|----------------------------------------|

           G#m                   C#7
Mientras el sol, iba muriendo lento lento
               F#                   D#m
yo me perdía en el verde de tus ojos
        E                              A#
y tu gritabas nuestro nombre junto al viento
          D#m
tu más en serio amor

Adorno:
e|--------------------|
B|--4/5----6/7--7-----|
D|--3-----------------|
G|--------------------|
A|--------------------|
E|--------------------|
          G#m                     C#7           F#                      D#m
Con paso lento t acercast poco a poco m sonreíste con un gesto 1 poco loco
e|-----------------------------------------|
B|9999997777776666677777766666666----------|
D|-------------------------------8888888888|
G|-----------------------------------------|
A|-----------------------------------------|
E|-----------------------------------------|

          E                     A#
y luego un beso que nacía sin pensarlo
       D#m
es demasiado
              D#7
no lo creo, no lo creo

     G#m               C#7
Amor mío, y que le has hecho
                   F#  - E7
a este aire que respiro
       D#m                        G#m
y como haces para entrar asi en mi vida
       C#7                        F#    D#m
júrame otra vez que no es una mentira


     G#m          C#7
Amor mío, pero que veo en ti
                  F#  - E7
que no veo en la gente
        D#m                          G#m
tu para mí te has vuelto ya tan importante
            C#7                          F#    D#m
que no hay amor que frente a tí sea suficiente


            G#m                 C#7
Mientras el sol iba naciendo lento lento
          F#                    D#m
yo me perdía en el verde de tus ojos
             E                              A#
y el sol me sorprendio durmiendo entre tus brazos
          D#m
mis manos en tus manos

Poema:

Me pierdo en el verde de tus ojos, edén sublime que me habla de dulzuras

y el tierno beso de tus labios rojos, me hizo morir de gozo y de ternuras

y al ocaso de fuego y arrebol ... me arrulle en ti, para nacer al sol .

Requinto del poema:
            G#m                 C#7            F#                D#m
e|----------9---7-7-6-6-----------------------7-6--6----------------|
B|----6--7--------------9--7-9-7-6-------6-7-9-------9-9--7-9-7-6---|
D|-8---------------------------------6-8--------------------------8-|
G|------------------------------------------------------------------|
A|------------------------------------------------------------------|
E|------------------------------------------------------------------|

          E          A#          D#m
e|-------------6-7-7/6-7-6--------------------|
B|--9-9-9-9--9--------------6-9-7-6-7-6-------|
D|--------------------------------------8-8-8-|
G|--------------------------------------------|
A|--------------------------------------------|
E|--------------------------------------------|


            G#m                 C#7
Mientras el sol iba naciendo lento lento
          F#                    D#m
yo me perdía en el verde de tus ojos
             E                              A#
y el sol me sorprendio durmiendo entre tus brazos
                 D#m     F#m
mis manos en tus manos

            
            
Suggest correction
Creating personal tab
Creating personal tab
You can edit any tab online and save it as your Personal.

You can edit, replace or remove any tab part or add personal notes – all changes will be seen only by you.

Personal tabs can be accessed anytime from any device, even offline.
Learn more »
Give kudos to tab author, rate the tab!
1 2 3 4 5
comments
print report bad tab
guest
Wanna post a correction for this tab? Suggest correction