Oops, an error
Loading. Please wait.

Esclavo Y Amo tab

version 1
version 1

Whole song

115 views 1 this week
no commentswrite comment
1 2 3 4 5
3 more votes to show rating
add to favorites
×
Save as Personal and add changes to this tab that will be seen only by you. Learn more ›
×
You can save this tab as Personal to edit and correct it or add notes. All changes will be seen only by you. Learn more »
launch autoscroll
font size
0
reset
how to read this tab
guitar tuner
edit
Autoscroll
slow
fast
+/-
esc
set tempo
stop
Esta rola va dedicada para la chava a la que quiero mas:
Bren mi galleta t.q.m pase lo que pase.

Los acordes utilizados son:

   Am             G            F           E         Dm           A
e¦-----¦      e¦--3--¦     e¦--1--¦    e¦-----¦   e¦--1--¦    e¦-----¦
B¦-1---¦      B¦-----¦     B¦--1--¦    B¦-----¦   B¦--3--¦    B¦-2---¦
G¦-2---¦      G¦-----¦     G¦--2--¦    G¦--1--¦   G¦--2--¦    G¦-2---¦
D¦-2---¦      D¦-----¦     D¦--3--¦    D¦--2--¦   D¦-----¦    D¦-2---¦
A¦-----¦      A¦--2--¦     A¦--3--¦    A¦--2--¦   A¦-----¦    A¦-----¦
E¦-----¦      E¦--3--¦     E¦--1--¦    E¦-----¦   E¦-----¦    E¦-----¦


AHORA el requinto del principio.
Pueden tremolear en algunas partes para que quede mejor.

          Am       G            F             E
e|-----|---5--|-0---1---3-|-----0---1 |------------------|
B|--5--|------|-----------|--3--------|-1---3----3/6--5--|
G|-----|------|-----------|-----------|------------------|
D|-----|------|-----------|-----------|------------------|
A|-----|------|-----------|-----------|------------------|
E|-----|------|-----------|-----------|------------------|


Aqui las guitarras se callan para que continue el requinto solo:
(se debe tocar mas rapido que el anterior)

e|--0--1--0-------0-1----5----------|
B|-----------3----------------------|
G|----------------------------------|
D|----------------------------------|
A|----------------------------------|
E|----------------------------------|

Aqui ya vuelve a la velocidad normal:

e|----5--4--5--4--1------0-1----0-----------|
B|------------------------------------------|
G|------------------------------------------|
D|------------------------------------------|
A|------------------------------------------|
E|------------------------------------------|


El arreglo para terminar este requinto es este:

e|-----------------------------------------------|
B|-----------------------------------------------|
G|-----------------------------------------------|
D|-----------------------------------------------|
A|-----------------------------------------------|
E|-------0--------5---5--4--5------0-------------|


Hasta esta parte se toca solo el requinto y vuelven a
empezar las guitarras:


 Am
No se que tienen tus ojos
                    G
No se que tiene tu boca
                  F
Que domina mis antojos
                     E
Y a mi sangre vuelve loca


    Am
No se como fui a quererte
                     G
Ni como te fui adorando
                     F
Me siento morir mil veces
                      E
Cuando no te estoy mirando

Dm
De noche cuando me acuesto
    A      E        Am
A Dios le pido olvidarte
                     G
Y al amanecer despierto
      F           E
Tan solo para adorarte

Dm
Que influencia tienen tus labios
      Am       E      Am
Que cuando me besan tiemblo
                        G     F   E
Hacen que me sienta esclavo y amo
        Am
Del universo


EMPIEZA EL REQUINTO DE EN MEDIO:
Para acompañar lleva los sig. tonos y en este mismo orden:
                     Am G  F  E


e|-----5--5-4-5--7--7/8--5----------5--5---7----7/8--5-7-3---|
B|-5---------------------------5-----------------------------|
G|-----------------------------------------------------------|
D|-----------------------------------------------------------|
A|-----------------------------------------------------------|
E|-----------------------------------------------------------|


e|----3--3-5--5/7---3---5--1-------1-1-3-3/5--5-3-1-0---|
B|--3---------------------------1-----------------------|
G|------------------------------------------------------|
D|------------------------------------------------------|
A|------------------------------------------------------|
E|------------------------------------------------------|


Y TERMINA ASI LA CANCION:


Dm
Que influencia tienen tus labios
      Am       E      Am
Que cuando me besan tiemblo
                        G     F   E
Hacen que me sienta esclavo y amo
        Am   F-G-A
Del universo


----SOBRES YA ESTA ECHENLE GANAS Y SI SALE.
SALUDOS PARA LOS DEL CECYTEG DE SAN LUIS---

            
            
Suggest correction
Creating personal tab
Creating personal tab
You can edit any tab online and save it as your Personal.

You can edit, replace or remove any tab part or add personal notes – all changes will be seen only by you.

Personal tabs can be accessed anytime from any device, even offline.
Learn more »
Give kudos to tab author, rate the tab!
1 2 3 4 5
comments
print report bad tab
guest
Wanna post a correction for this tab? Suggest correction