Oops, an error
Loading. Please wait.

Hasta Donde Te Quiero chords

version 2
version 2

Whole song

53 views 1 this week
no commentswrite comment
1 2 3 4 5
3 more votes to show rating
add to favorites
×
Save as Personal and add changes to this tab that will be seen only by you. Learn more ›
×
You can save this tab as Personal to edit and correct it or add notes. All changes will be seen only by you. Learn more »
launch autoscroll
font size
0
reset
transpose
0
reset
simplify chords
display chords
guitar tuner
edit
Autoscroll
slow
fast
+/-
esc
set tempo
stop
Strumming
There is no strumming pattern for this song yet. and get +5 IQ
****************************************************************************************
*   HOLA DE NUEVO¡¡                                                                    *
*                                                                                      *
*   AHORA LES ENVÍO OTRA MARAVILLOSA CANCIÓN QUE A TODOS NOS MUEVE EL SENTIMIENTO      *
*   DEL ROMANCE EN NUESTROS CORAZONES, ES UNA CANCIÓN TAN BELLA QUE NO PUDE            *
*   EVITAR EL TRANSCRIBIRLA... SOLO KE ME TENDRÁN QUE DISPENSAR UN POKITO PUES         *
*   PORKE NO ES LA CANCIÓN TAL Y COMO LA CANTA LA RONDALLA DE SALTILLO, DE HECHO, SE   *
*   PARECE MUCHISIMO, PERO POR ESO SE LOS ACLARO..PUES CUANDO HICIMOS UN TRIBUTO A LA  *
*   RONDALLA DE SALTILLO NO QUICIMOS IMITARLOS AL 100% (SOLO AL 95% JAJAJA), ADEMÁS,   *
*   HAY UN ADORNO CON ARMÓNICA, Y A MÍ YA SE ME FUÉ LA ONDA CON LA ARMÓNICA, POR ESO   *
*   PUSE UNO QUE PODRÍA SER ADECUADO PARA LA GUITARRA, ESPERO SEA DE SUS AGRADO....    *
*                                                                                      *
****************************************************************************************

ANTES DE CONTINUAR LES DIGO QUE SE UTILIZAN DOS ACORDES QUE NO SÉ EXACTAMENTE CÓMO SE LLAMAN,
ASÍ QUE MEJOR SE LOS PONGO AQUÍ PARA QUE SEPAN DE CUÁLES SE TRATAN:

*les puse estos nombres sólo temporalmente (espero no confundirlos):

                              /                                      /
         ------|------|------|6   _             ------|------|------|6   _             
         ------|------|------|5  (_             ------|------|------|5  (_
         ------|------|------|4                 ------|---O--|------|4
         ------|--O---|------|3   _             ------|------|------|3   _ 
         ------|--O---|------|2  (_             ------|---O--|------|2  (_ 
         ------|--O---|------|1                 ------|------|---O--|1
                              \                                      \
                 D2                                     A2


AHORA VAMOS CON LOS TABS:

AQUÍ SON SÓLAMENTE BAJOS Y DOS NOTAS COMO ACOMPAÑAMIENTO EN GUITARRA:

INTRO:

                  D        D2       RE     RE2          RE        RE2      RE    RE2
6|--------------------------------------------------------------------------------------|
5|-0--2--0--2--0---------------------------0--2--0--2--0--------------------------------|
4|-----------------4---2--4--2--4--2--0--------------------4---2--4--2--4--2--0---------|
3|--------------------------------------------------------------------------------------|
2|--------------------------------------------------------------------------------------|
1|--------------------------------------------------------------------------------------|

...................................................................................................


ESTE ES EL SEGUNDO ADORNO DE LA CANCIÓN, A DOS GUITARRAS:

RIFF2:

             A7
6|-------------------------|           
5|-------------------------|           
4|-------------------------|           
3|-------------------------|           
2|--5----8----8----7----7--|           
1|--3----7----7----5----5--|           

6|-------------------------|
5|-------------------------|
4|-------------------------|
3|-------------------------|      
2|--8---12---12---10---10--|
1|--7---10---10----9----9--|


ESTE ES EL TERCER ADORNO DE LA CANCIÓN, ES UN RASGEO:

RIFF 3:

               A7
6|-----------------------------------------------------|
5|-----------------------------------------------------|
4|-----------------------------------------------------|
3|-----------------------------------------------------|
2|-12--12--12--12--12--12--12--10--10--10--10--10--10--|
1|-10--10--10--10--10--10--10---9---9---9---9---9---9--|


ESTE ES EL CUARTO ADORNO DE LA CANCIÓN, ORIGINALMENTE ES EN ARMÓNICA, PERO TRATÉ DE ADECUAR UNO
PARA LA GUITARRA:

RIFF4:
                  D              Em            F#m                Fm         Em          A7
6|------------------------------------------------------------------------------------------------->
5|------------------------------------------------------------------------------------------------->
4|------------------------------------------------------------------------------------------------->
3|------------------------------------------------------------------------------------------------->
2|-----------------------------------------------------------------5--3------5----3-----2---------->
1|-2--3--5--3--2--5-5-5-5-5-5-5-5-5-5-5-5-5-5-5-5-5-5-5-5---3--2----------------------------------->


           Em                  F#7                          Bm       Bm - A#m - Am - D7
6|-------------------------------------------------------------------------------------------------|
5|-------------------------------------------------------------------------------------------------|
4|-------------------------------------------------------------------------------------------------|
3|----------------------------------------2--4-----------------------------------------------------|
2|-------------------------5--3--2--------------2--3--5--------------------------------------------|
1|-2--3--2--3-----3--3--2--------------------------------2--3--2-----------------------------------|


.....................................................................................................

AHORA SI, VAMOS CON LA CANCIÓN:


INTRO Y ACOMPAÑAMIENTO...

                     D    Em
Que hasta donde te quiero
                     F#m  Fm
siempre me has preguntado 
      Em      RIFF2 Y ACOMPAÑAMIENTO
no te sé decir

              Em
Si parece imposible
               A7    A2
alcanzar una estrella
                D  D2  RE  RE2
yo lo haría por ti

                     D    Em
que hasta donde te quiero
             F#m   Fm
esa necia pregunta
      Em    RIFF 3 Y ACOMPAÑAMIENTO
no responderé

                      Em
sin mi amor no hay distancia
                       F#7
si no hay cerca no hay lejos
          Bm      Bm - A#m - Lamm D7
cómo te haré saber

                G
júzgame como un loco
                 Gm
piensa tú lo que quieras
       D         C - B7
yo te quiero así

                  Em
quieres que yo te diga
                A7-A2
hasta donde te quiero
                D      Bm    Em   A7
hasta donde tus ojos no ven


RIFF 4 Y ACOMPAÑAMIENTO..

'No preguntes a mi alma cuánto te amo...
Porque para mi amor no hay distancias ni fronteras...
Y si quieres saber cuánto he de amarte...
Te amo más allá de tu vida, de la mía y del tiempo...
Porque poca es la eternidad... Para adorarte...'


                  G
Si tu quieres soy loco 
             Gm
píntame como quieras
                   D   C  B7
siempre esclavo de ti seré
                  Em
quieres que yo te diga
                A7    A2
hasta donde te quiero

                D      Bm  Em  A7
hasta donde tus ojos no ven
                D      Bm  Em  A7
hasta donde tus ojos no ven
                Gm        D
hasta donde tus ooooojos no ven


*Bueno, espero que les haya gustado esta magnífica canción porque es muy bella...

Dedico esta canción a todas aquellas personas que físicamente no conozco pero que me han hecho
peticiones y que afortunadamente no les he quedado mal. Sin ustedes no tendría valor el trabajo
que cada uno de nosotros (los transcriptores) hacemos con tal de que no se pierda el romance en
nuestros días.

Así pues, Dedico esta canción a todas esas personitas que se han tomado la molestia de tomarme 
en cuenta y que me han hecho sentir muy afortunado. A las personas de Puebla,Tuxtla,Cd. Neza, México,
Saltillo,Colima, y por supuesto.. Guadalajara ( a mi amiga Nereyda ). A todos esos bellos seres, 
muchas gracias...

Y por supuesto un saludo a la Rondalla 'Voces',de Tapachula Chiapas, a la cual pertenezco..
Salúd Compachis!! Siempre juntos... 

Nos vemos pronto con más canciones....Bytes!!

            
            
Suggest correction
Creating personal tab
Creating personal tab
You can edit any tab online and save it as your Personal.

You can edit, replace or remove any tab part or add personal notes – all changes will be seen only by you.

Personal tabs can be accessed anytime from any device, even offline.
Learn more »
Give kudos to tab author, rate the tab!
1 2 3 4 5
comments
print report bad tab
guest
Wanna post a correction for this tab? Suggest correction