Oops, an error
Loading. Please wait.

Mi Dulce Amor tab

43 views 1 this week
no commentswrite comment
1 2 3 4 5
3 more votes to show rating
add to favorites
×
Save as Personal and add changes to this tab that will be seen only by you. Learn more ›
×
You can save this tab as Personal to edit and correct it or add notes. All changes will be seen only by you. Learn more »
launch autoscroll
font size
0
reset
how to read this tab
guitar tuner
edit
Autoscroll
slow
fast
+/-
esc
set tempo
stop
ES INCREIBLE QUE NADIE LO HALLA MANDADO CON ANTERIORIDAD
ESTE ES EL REQUINTO Y ES EL ORIGINAL BUENA SUERTE

               Am           A7       Dm               E7
e---8--8-12--8--8--8------8--8-12--8-10----10-10-13-10-10-10--
b--10-10-10-10-10-10-----10-10-10-10-12----12-12-12-12-12-12--
g-------------------------------------------------------------
D-------------------------------------------------------------
A-------------------------------------------------------------
E-------------------------------------------------------------

              Am
--10-10-13-10-12-I
--12-12-12-12-13-I
-----------------I
-----------------I
-----------------I
-----------------I


SE VUELVE A REPETIR LO MISMO:
                            A7       Dm                E7
e---8--8-12--8--8--8------8--8-12--8-10----10-10-13-10-10-10--
b--10-10-10-10-10-10-----10-10-10-10-12----12-12-12-12-12-12--
g-------------------------------------------------------------
D-------------------------------------------------------------
A-------------------------------------------------------------
E-------------------------------------------------------------

              Am
--10-10-13-10-12-I
--12-12-12-12-13-I
-----------------I
-----------------I
-----------------I
-----------------I

-------------------------------------FIN----------------------

EN EL REQUINTO DE ENMEDIO EN DONDE SE DECLAMA EL POEMA ES LO MISMO
PERO CON UNA VARIANTE AL FINAL:

               Am           A7       Dm                E7
e---8--8-12--8--8--8------8--8-12--8-10----10-10-13-10-10-10--
b--10-10-10-10-10-10-----10-10-10-10-12----12-12-12-12-12-12--
g-------------------------------------------------------------
D-------------------------------------------------------------
A-------------------------------------------------------------
E-------------------------------------------------------------

              Am
--10-10-13-10-12-I
--12-12-12-12-13-I
-----------------I
-----------------I
-----------------I
-----------------I


                            A7       Dm                E7
e---8--8-12--8--8--8------8--8-12--8-10----10-10-13-10-10-10--
b--10-10-10-10-10-10-----10-10-10-10-12----12-12-12-12-12-12--
g-------------------------------------------------------------
D-------------------------------------------------------------
A-------------------------------------------------------------
E-------------------------------------------------------------

                Am   E7  Am
----10-10-13-10-12---10--12--I
----12-12-12-12-13---12--13--I
-----------------------------I
-----------------------------I
-----------------------------I
-----------------------------I

LES RECOMIENDO ESCUCHAR EL REQUINTO ANTES DE EJECUTARLO PARA
QUE SE DEN UNA IDEA. EL ESPACIO ES MUY CHICO PARA ESCRIBIR
REQUINTOS ASI QUE LO TUVE QUE PRESENTAR ASI, NOS VEMOS...

            
            
Suggest correction
Creating personal tab
Creating personal tab
You can edit any tab online and save it as your Personal.

You can edit, replace or remove any tab part or add personal notes – all changes will be seen only by you.

Personal tabs can be accessed anytime from any device, even offline.
Learn more »
Give kudos to tab author, rate the tab!
1 2 3 4 5
comments
print report bad tab
guest
Wanna post a correction for this tab? Suggest correction