Oops, an error
Loading. Please wait.

Por Ella tab

58 views 1 this week
no commentswrite comment
1 2 3 4 5
3 more votes to show rating
add to favorites
×
Save as Personal and add changes to this tab that will be seen only by you. Learn more ›
×
You can save this tab as Personal to edit and correct it or add notes. All changes will be seen only by you. Learn more »
launch autoscroll
font size
0
reset
how to read this tab
guitar tuner
edit
Autoscroll
slow
fast
+/-
esc
set tempo
stop
SALUDOS al C.B.t.a 71  (la rondalla y a todas las super amistades
 k tengo)
ESTA ROLA ES LA PRIMERA QUE SUBO, como la toko no se oye tan mal
pero si tiene errores corrijanla


REQUINTO 1 (SE TOCA DOS VECES EN EL INTRO EL PRIMERO SOLO Y EL SEGUNDO
CON UN RASGUEO DE LOS ACORDES DEPUES SE TOCA DEL PRIMERO AL TERCER
PARRAFO)


B---7----7---7-------5---5---5-------3---3---3-------2---2---2------
e-5---5----5---5-7-5---5---5---5-3-2---2---2---2-3-0---0---0---7--5-

  D                A              Bm               A
B---7----7---7-------5---5---5-------3---3---3-------2---2---2------
e-5---5----5---5-7-5---5---5---5-3-2---2---2---2-3-0---0---0---7--5-

D                      A
  No me importa lo que pase,
                       Bm               A
  Lo que digan, lo que hagan, sólo háblame            1ER PARRAFO
D                            A
  Tal vez hoy lo nuestro se acabe
                    Bm                   A
  Y se destruya esa torre de amor que formé

D                           A
  Tal vez el cielo no lo entienda
                    Bm          A
  Ya que nunca se enamora, tal vez                     2DO PARRAFO
D                            A
  Tal vez mis ojos hoy no lloren
                   Bm                  A
  Y mi sonrisa sea otra igual que mi piel

D                            A
  Se lo grito a todos los mares
                          Bm                A          3ER PARRAFO
  Y aunque nadie me lo entienda siempre te amé

      D                        A
  Por ella la primera que conozco
                    Bm          A         D
  Por la que daría mi vida donde fuera por ella
                    A
  La que dice que me ama
                   Bm                     A
  Escondiendo tras miradas la verdad de su amor
     Bm                      A
  Por ella, ella me ha vuelto loco el corazón
     D
  Por ellaa

SE TOCA EL PRIMER REQUINTO Y EL SEGUNDO AL MISMO TIEMPO
 HASTA EL SIGUIENTE PARRAFO

REQUINTO 2

G -----11------11------11------11-----6----6----6----6---------------
B ---10------10------10------10------5----5----5----5----------------
e -10---10-12---12-14---14-12---12--5--5-7--7-9--9-7--7--------------

G---8----8-----8-----8-------6---------------------------------------
B--7----7-----7-----7-------5----------------------------------------
e-7--7-9--9-10--10-9--9----5--5-7----7-7----7------------------------

G -----11------11------11------11-----6----6----6----6----------------
B ---10------10------10------10------5----5----5----5-----------------
e -10---10-12---12-14---14-12---12--5--5-7--7-9--9-7--7-7---7-7-7--7--

G---------------------------------------------------------------------
B---------------------------------------------------------------------
e-9-9---10---9-9-9---7--7-7-5---5--5-7-5-3-2-0------------------------

G -----11------11------11------11-----6----6----6----6----------------
B ---10------10------10------10------5----5----5----5-----------------
e -10---10-12---12-14---14-12---12--5--5-7--7-9--9-7--7---------------

G---8----8-----8-----8-------6----------------------------------------
B--7----7-----7-----7-------5-----------------------------------------
e-7--7-9--9-10--10-9--9----5--5-7----7-7----7-------------------------

G -----11------11------11------11-----6----6----6----6----------------
B ---10------10------10------10------5----5----5----5-----------------
e -10---10-12---12-14---14-12---12--5--5-7--7-9--9-7--7---7-9-9-------

G --------------------------------------------------------------------
B --------------------------------------------------------------------
e -10-9-9--7-7-7-7-5--5---5-5-7-5-3-2-0-------------------------------

G -----11------11------11------11-----6----6----6----6---------------
B ---10------10------10------10------5----5----5----5----------------
e -10---10-12---12-14---14-12---12--5--5-7--7-9--9-7--7--------------

G---8----8-----8-----8-------6----------------------6----6-----------
B--7----7-----7-----7-------5----------------------5----5------------
e-7--7-9--9-10--10-9--9----5--5-7----7-7----7-----5--5-5--5-5--------


D                      A
  No me importa lo que pase,
                       Bm               A
  Lo que digan, lo que hagan, sólo háblame
D                      A
  no me importa que el silencio
                    Bm
  Hable más que las palabras que dejaron
     A                      D
  Esa huella de ti en mi corazóon
                    A
  Solo quiero que demuestres
                   Bm
  Con un abrazo y un beso
                     A             D
  Si en verdad lo que sientes es amooor

>ESTA PARTE SE HACE SIN GUITARRAS<

  Por ella la primera que conozco

  Por la que daría mi vida donde fuera por ella

  La que dice que me ama

  Escondiendo tras miradas la verdad de su amor

  Por ella, ella me ha vuelto loco el corazón

REQUINTO 1
      D                        A
  Por ella la primera que conozco
                    Bm          A         D
  Por la que daría mi vida donde fuera por ella
                    A
  La que dice que me ama
                   Bm                     A
  Escondiendo tras miradas la verdad de su amor
     D                        A
  Por ella, ella me ha vuelto loco el corazón
     Bm
  Por ellaaa

ESCUCHEN LA CANCION PARA QUE SE DEN UNA IDEA DE LA MANERA EN QUE SE TOCA
ESPERO QUE LES GUSTE!!!!
EN CASO DE QUE TENGAN DUDAS LES DEJO MI CORREO. never12_@

            
            
Suggest correction
Creating personal tab
Creating personal tab
You can edit any tab online and save it as your Personal.

You can edit, replace or remove any tab part or add personal notes – all changes will be seen only by you.

Personal tabs can be accessed anytime from any device, even offline.
Learn more »
Give kudos to tab author, rate the tab!
1 2 3 4 5
comments
print report bad tab
guest
Wanna post a correction for this tab? Suggest correction