Oops, an error
Loading. Please wait.

Por Vez Primera tab

10 views 1 this week
no commentswrite comment
1 2 3 4 5
3 more votes to show rating
add to favorites
×
Save as Personal and add changes to this tab that will be seen only by you. Learn more ›
×
You can save this tab as Personal to edit and correct it or add notes. All changes will be seen only by you. Learn more »
launch autoscroll
font size
0
reset
how to read this tab
guitar tuner
edit
Autoscroll
slow
fast
+/-
esc
set tempo
stop
+-----------------------------------------------------------------------+
| HOLA A TODOS:                                                         |      
| LES ENVÍO AHORA ESTA CANCIÓN, LA VERDAD NO SÉ SI REALMENTE ASÍ        |
| SE LLAME, PERO PUES ASÍ APARECÍA CUANDO LA BAJÉ JEJE, PERO DE TODOS   |
| MODOS LO IMPORTANTE ES QUE AQUÍ ESTÁ. ESPERO LES GUSTE Y ENTIENDAN    |
| A MIS TABS, Y SI NO PUES, ME DICEN Y TRATARÉ DE SER MÁS CLARO.        |
| SI VEN QUE ESTÁ MUY LARGA O ALGO ASÍ, PIDO DISCULPAS, PERO ME GUSTA   |
| ENVIAR TODO LO QUE PUEDA SERVIRLES DE UNA CANCIÓN, ASÍ QUE SIEMPRE    |
| HE DE INCLUIR TODO LO QUE SE PUEDA. OK,LOS DEJO CON LA ROLA. BYTES!!  |
+-----------------------------------------------------------------------+

*Originalmente los adornos son en armónica, así que pongo las notas que
 son equivalentes en guitarra, a partir de ello ustedes pueden darse una
 idea sobre la canción, y si la tienen, será de gran ayuda...


                     VAMOS CON LOS ADORNOS:
.............................................................................

Este es el INTRO:

   DO                 FAm                 DO               FAm
6|---------------------------------------------------------------------------|
5|---------------------------------------------------------------------------|
4|---------------------------------------------------------------------------|
3|---------------------------------------------------------------------------|
2|----------8-------------------------------------8--------------------------|
1|-10--12------10--8--10--8--10--11-------10--12-----10--8--10--8--10--11----|

*La parte de en medio es parecidísima, solo lleva un pequeño cambio...

------------------------------------------------------------------------------

Este es el RIFF1:
    LA                                               FA#m             
6|-------------------------------------------------------------------------------------
5|-------------------------------------------------------------------------------------
4|------------------------------------------------------------------------------------- [primera parte]
3|------------------------------------------------------------------------------------- 
2|--10-10-10-10-10---9--9--9--9--9---10-10-10-10-10---9--9--9--9--9---7--7--7--7--7----
1|---9--9--9--9--9---7--7--7--7--7----9--9--9--9--9---7--7--7--7--7---5--5--5--5--5----


   RE                  SIm                               MI
6|-------------------------------------------------------------------------------------|
5|-------------------------------------------------------------------------------------|
4|-------------------------------------------------------------------------------------|[segunda parte]
3|-------------------------------------------------------------------------------------| 
2|-12-12-12-12-12---10-10-10-10-10---12-12-12-12-12---10-10-10-10-10---9-9-9-9-9-------|
1|-10-10-10-10-10----9--9--9--9--9---10-10-10-10-10----9--9--9--9--9---7-7-7-7-7-------|

*Este se toca a lo largo de todo un párrafo (en algunos párrafos)...

-----------------------------------------------------------------------------

Este es el RIFF2:

            SOL7          DO                 FAm              DO               FAm
6|-------------------------------------------------------------------------------------------------|
5|-------------------------------------------------------------------------------------------------|
4|-------------------------------------------------------------------------------------------------|
3|-------------------------------------------------------------------------------------------------|
2|-10------------------------------8------------------------------------8--------------------------|
1|-----7--9--10--9--7-----10--12------10--8--10--8--10--11------10--12-----10--8--10--8--10--11----|


*Este es el adorno de en medio de la canción (muy parecido al INTRO)...

----------------------------------------------------------------------------------------------------


AHORA SÍ, VAYAMOS DIRECTO A LA CANCIÓN:


INTRO y ACOMPAÑAMIENTO

           DO   
Por vez primera
          LAm
no quiero nada
          FA      
déjame un rato
       REm         SOL7
contemplar la madrugada


           DO
Aunque no creas
             LAm
quiero estar solo
         FA
poner en orden 
     REm               SOL7
las ideas que me traen loco


       DO
Cada mañana
         LAm
estoy sufriendo 
         FA         
la confusión 
        REm            MI7
al no saber a quien yo quiero


           La     FA#m
después de tanto
         RE         SIm
a esta edad y yo sufriendo
        MI
un desencanto


          LA                    FA#m
Por vez primeraaa      te veo distintaaa
          (Poooor vez  priiiimeeeeeeeeeeraaaaa)

        RE        SIm          MI
he comparado tu figura y tu sonrisaaa
       (Poooooooor vez   priiiiimeeeeeeraaaa)


           LA
Por vez primera 
        FA#m
estoy pagando
            RE
a un precio caro
      MI        LA       
el haberme enamorado


RIFF2 y ACOMPAÑAMIENTO


       DO
Cada mañana
         LAm
estoy sufriendo 
         FA         
la confusión 
        REm            MI7
al no saber a quien yo quiero


           La     FA#m
después de tanto
         RE         SIm
a esta edad y yo sufriendo
        MI
un desencanto


          LA                    FA#m
Por vez primeraaa      te veo distintaaa
          (Poooor vez  priiiimeeeeeeeeeeraaaaa)

        RE        SIm          MI
he comparado tu figura y tu sonrisaaa
       (Poooooooor vez   priiiiimeeeeeeraaaa)


           LA
Por vez primera 
        FA#m
estoy pagando
            RE
a un precio caro      
      MI        LA     RE
a un precio caro
      MI        LA       
el haberme enamorado
        RE
estoy pagando
      MI        LA       
el haberme enamorado...

.......................................................................


*Dedico esta canción a la Rondalla 'Voces' de Tapachula, Chiapas.

 También a todas las personas que colaboran con el  o bien,
 mandando transcripciones, o haciendo uso de ellas, la verdad no hay
 mejor dicha que enviar una transcripción sabiendo que ustedes pueden
 hacer uso de ella, es como si una parte de cada transcriptor estuviera
 con ustedes en el momento en que ejecuten esa canción en alguna Serenata
 o en sus ratos libres...

            
            
Suggest correction
Creating personal tab
Creating personal tab
You can edit any tab online and save it as your Personal.

You can edit, replace or remove any tab part or add personal notes – all changes will be seen only by you.

Personal tabs can be accessed anytime from any device, even offline.
Learn more »
Give kudos to tab author, rate the tab!
1 2 3 4 5
comments
print report bad tab
guest
Wanna post a correction for this tab? Suggest correction