Oops, an error
Loading. Please wait.

Quiero Ser tab

version 2
version 2

Whole song

22 views 1 this week
no commentswrite comment
1 2 3 4 5
3 more votes to show rating
add to favorites
×
Save as Personal and add changes to this tab that will be seen only by you. Learn more ›
×
You can save this tab as Personal to edit and correct it or add notes. All changes will be seen only by you. Learn more »
launch autoscroll
font size
0
reset
how to read this tab
guitar tuner
edit
Autoscroll
slow
fast
+/-
esc
set tempo
stop
k tal orta rola de la rondalla zzta super chekenla
saludoz A toda LA bandera  y a esas chikaz lindaz

intro:

      A            D                    A                      E
e-------------------------------------------------------------------
B----5-5-5p7-5-----5-----10-12--10---10--14-12-10--10----------10---
G-6-7----------7-6--7-6-7----------13----------------13-13-11-9----13

(esto va arpegeado mas adelante empieza el rasgueo)

  A               E
e--------------------------0--
B---------2-----------------
G------2------2--------1----
D---2---2--2---2----2---2--
A-0--------------2--------
E---------------------------
Quiero dar todo por tiii
 F#m               D
e----------2----------------0-2---0--
B-------------------------3-----3----
G------2------2-------2-------------
D---4---4--4---4---0---------------
A-4----------------------------------
E-------------------------------------
Y entregarte un mundo feliiiz
   A                      E
e----------0-------------------0-------
B-----------------------------------
G------2------2--------1----------
D---2---2--2---2----2---2------
A-0----------------2-------------
E----------------------------------
Quiero estar contigo en todas partes
 F#m                    A
e------------------2---------------------------
B---------------------------------0-2---0----
G---1---------2------2---------2-----2------
D-2---2----4---4--4---4-----2--------------
A--------4---------------0-----------------
E-------------------------------------------
Llevarte por igual  ?con migo a donde voooy?

     A                    E
?caminar siempre a tu laaado
     F#m            D     E
Disfrutar al verte feliiiiz?
     A                               E
Superar contigo cada paso hasta alcanzar
         F#m            E-E
En este mundoo la felicidaad
  A  E   A                 D
?Quiero seer,  yo quiero seeer?
             A
Parte de tu ser

     D             A
Habitar en tu interior
 D                  A
ser el nido de tu amoor
 D            A         E
?que mi casa sea tu corazón?

      A            D                    A                      E
e-------------------------------------------------------------------
B----5-5-5p7-5-----5-----10-12--10---10--14-12-10--10----------10---
G-6-7----------7-6--7-6-7----------13----------------13-13-11-9----13

(poema va junto con el requinto y los acordes)

juntos alcanzaremos la luz de la esperanza y miraremos las strellas,
 brotara la sonrrisa y realizaremos nuestros sueños,
conquistaremos el mundo juntos, en un solo corazon


     A                   E
?caminar siempre a tu laaaado
   F#m              D   E
disfutar al verte feliiiz?
    A                                E
superar con tigo cada paso hasta alcanzar
        F#m               E-E
en este mundo  ?la felicidaad?
  A   E  A              D
?quiero ser, yo quiero seer?
             A
parte de tu ser
      D             A
 habitar en tu interior
 D                  A
ser el nido de tu amor
  D           A          E
?que mi casa sea tu corazoon?
 A   E  A             D
quiero ser yo quiero ser
             A
tu razon de seer
      D           A
 tu poema tu cancioon
       D           A
estar juntos ante Dios
        D      A         E
?y habitar un solo corazooon
 D          A            E
que mi casa sea tu corazóoon
     D                 A
y habitar un solo corazooon?

ezo es todo  ezta rola es algo dificil de conseguir
 por que hay varias versiones  si la kieren aki les dejo mi correo
pa  k  la emvie solo dejen su  mensaje
never12_@
Suggest correction
Creating personal tab
Creating personal tab
You can edit any tab online and save it as your Personal.

You can edit, replace or remove any tab part or add personal notes – all changes will be seen only by you.

Personal tabs can be accessed anytime from any device, even offline.
Learn more »
Give kudos to tab author, rate the tab!
1 2 3 4 5
comments
print report bad tab
guest
Wanna post a correction for this tab? Suggest correction