Oops, an error
Loading. Please wait.

Quiero Ser tab

version 3
version 3

Whole song

22 views 1 this week
no commentswrite comment
1 2 3 4 5
3 more votes to show rating
add to favorites
×
Save as Personal and add changes to this tab that will be seen only by you. Learn more ›
×
You can save this tab as Personal to edit and correct it or add notes. All changes will be seen only by you. Learn more »
launch autoscroll
font size
0
reset
how to read this tab
guitar tuner
edit
Autoscroll
slow
fast
+/-
esc
set tempo
stop
intro:

      A            D                    A                      E
e-------------------------------------------------------------------
B----5-5-5p7-5-----5-----10-12--10---10--14-12-10--10----------10---
G-6-7----------7-6--7-6-7----------13----------------13-13-11-9----13


Quiero  dar    todo por tiiiii
       A               E
e--------------0---------------0---
B----------2-------2-------0-------
G--------2---2---2---2---1---1-----
D----------------------------------
A------0---------------------------
E----------------------0-----------

 Y entregarte un mundo feliiiz
   F#m                      E
e--------------2--------------0h2-0--
B----------2-------2--------3--------
G--------2---2---2---2----2----------
D-----------------------0------------
A------------------------------------
E-0-1-2------------------------------

Quiero estar contigo en todas partes
       A             A7         D
e--------------------------------------
B--------2-------------2----------3----
G------2---2--------0-----0-----2---2--
D-----------------------------0--------
A----0-----------0---------------------
E--------------------------------------

llevarte por igual  con migo a donde voooy
              A                       E
e-0------------------0-------0--------------0h2-0
B--------3--------2-------2--------2-------0------
G-----2-----2---2---2---2---2----2---2---1--------
D-------------------------------------------------
A-------------0-----------------------------------
E--------------------------------------0----------


     A                 E
?caminar siempre a tu laaado
     F#m            D
Disfrutar al verte feliiiiz?
     A      A7         D
Superar contigo cada paso hasta alcanzar
         A               E-E
En este mundoo la felicidaad
 D-D     A                A7
?Quiero seer,  yo quiero seeer?
             D
Parte de tu ser

     D             A
Habitar en tu interior
 D                  A
ser el nido de tu amoor
        F#m   D         E
que mi casa sea tu corazón

      A            D                    A                      E
e-------------------------------------------------------------------
B----5-5-5p7-5-----5-----10-12--10---10--14-12-10--10----------10---
G-6-7----------7-6--7-6-7----------13----------------13-13-11-9----13

(poema va junto con el requinto y los acordes)

juntos alcanzaremos la luz de la esperanza y miraremos las Estrellas,
 brotara la sonrrisa y realizaremos nuestros sueños,
conquistaremos el mundo juntos, en un solo corazon


     A                 E
?caminar siempre a tu laaado
     F#m            D
Disfrutar al verte feliiiiz?
     A      A7         D
Superar contigo cada paso hasta alcanzar
         A               E-E
En este mundoo la felicidaad
 D-D     A                A7
Quiero seer,  yo quiero seeer
             D
Parte de tu ser


     D             A
Habitar en tu interior
 D                  A
ser el nido de tu amoor
        F#m   D         E
que mi casa sea tu corazón

 D-D    A             A7
quiero ser yo quiero seer
             D
tu razon de seer
      D           A
 tu poema tu cancioon
       D           A
estar juntos ante Dios
       F#m     D         E
?y habitar un solo corazooon
        F#m  D           E
que mi casa sea tu corazóoon
       F#m    D         A
y habitar un solo corazooon?

es una cancion muy facil, y es la version original

            
            
Suggest correction
Creating personal tab
Creating personal tab
You can edit any tab online and save it as your Personal.

You can edit, replace or remove any tab part or add personal notes – all changes will be seen only by you.

Personal tabs can be accessed anytime from any device, even offline.
Learn more »
Give kudos to tab author, rate the tab!
1 2 3 4 5
comments
print report bad tab
guest
Wanna post a correction for this tab? Suggest correction