Oops, an error
Loading. Please wait.

Rosas Rojas tab

47 views 1 this week
no commentswrite comment
1 2 3 4 5
3 more votes to show rating
add to favorites
×
Save as Personal and add changes to this tab that will be seen only by you. Learn more ›
×
You can save this tab as Personal to edit and correct it or add notes. All changes will be seen only by you. Learn more »
launch autoscroll
font size
0
reset
how to read this tab
guitar tuner
edit
Autoscroll
slow
fast
+/-
esc
set tempo
stop
ESTA VA PARA @RELY


INTRO:
                   G  A7     D      G     D
E------------------------------------------------------------------
A------------------------------------------------------------------
D------------------------------------------------------------------
G----------------------------------2-------------------------------
B-3-3-5-5-7-7-8-7-8---8-7-5-3-------0-3---3------------------------
e-2-2-3-3-5-5-7-5-7---7-5-3-2----------2-0-------------------------
             A7
Y el tiempo me enseño
            D
que el rojo es pasion
              A7
es fuego ardiente
       D
felicidad (corte)

          G
Con rosas rojas yo
          D
te mostrare mi amor
          A7          G     A7
el dulce amor que en mi nacio
           D G D
cuando te vi    [corte]

          A7
A diario te enviare
E--------------------------------
A--------------------------------
D--------------------------------
G--------------2-----------------
B---------------0-2--------------
e--------------------7-5---------
           D
mil rosas de color
E--------------------------------
A--------------------------------
D--------------------------------
G--------------------------------
B------------3-------3-----------
e-------------0-2-1-0------------
          A7
si yo te conquiste
E--------------------------------
A--------------------------------
D--------------------------------
G--------------------------------
B----------10-10-10-9-8-7--------
e-----------9--9--9-8-7-5--------
          D
fue nada mas

           G
Con rosas rojas yo
         D
te mostrare mi amor
           A7         G    A7
el dulce amor que en mi nacio
           D G D7 G
cuando te vi

               A7
Son mis rosas la pasion
    D       Db    D   D7 G
que yo siento por ti
               A7
cada rosa roja es
    D    Db     D
un simbolo de amor


Intermedio:
                  G          D
E--------------------------------------
A--------------------------------------
D--------------------------------------
G--------------------------------------
B-3-3-5-5-7-7-8-7-8---8-5-8-7-5-3------
e-2-2-3-3-5-5-7-5-7---7-3-7-5-3-2------
         A7   G  A7      D     G  D
E--------------------------------------
A--------------------------------------
D--------------------------------------
G----------------------------2---------
B-7-5-3-5-3-2-8-2---8-7-5-3---0-3--3---
e-5-3-2-3-2-0-7-0---7-5-3-2----2-0-----

             A7
Y el tiempo correra
E--------------------------------
A--------------------------------
D--------------------------------
G--------------2-----------------
B---------------0-2--------------
e--------------------7-5---------

          D
tal vez mia seras
E--------------------------------
A--------------------------------
D--------------------------------
G--------------------------------
B------------3-------3-----------
e-------------0-2-1-0------------

          A7
si yo te conquiste

          D
fue nada mas

           G
Con rosas rojas yo
         D
te mostrare mi amor
           A7         G    A7
el dulce amor que en mi nacio
           D G D7 G
cuando te vi

          A7         G    A7
el dulce amor que en mi nacio (corte)
cuando te vi

ESPERO KE LES GUSTE

            
            
Suggest correction
Creating personal tab
Creating personal tab
You can edit any tab online and save it as your Personal.

You can edit, replace or remove any tab part or add personal notes – all changes will be seen only by you.

Personal tabs can be accessed anytime from any device, even offline.
Learn more »
Give kudos to tab author, rate the tab!
1 2 3 4 5
comments
print report bad tab
guest
Wanna post a correction for this tab? Suggest correction