Oops, an error
Loading. Please wait.

Tema De Historia De Amor tab

version 1
version 1

Whole song

122 views 1 this week
no commentswrite comment
1 2 3 4 5
2 more votes to show rating
add to favorites
×
Save as Personal and add changes to this tab that will be seen only by you. Learn more ›
×
You can save this tab as Personal to edit and correct it or add notes. All changes will be seen only by you. Learn more »
launch autoscroll
font size
0
reset
how to read this tab
guitar tuner
edit
Autoscroll
slow
fast
+/-
esc
set tempo
stop
Bueno pues espero que les sirvan los requintos.
Escuchen la canción y así como están aquí anotados así aparecen
en la canción. En este orden. (Escuchen bien la canción)


Intro:

e-7-----7-7-----7-7----------6-6-6-6-----6-6---------4-4-4-4
B-----------------------------------------------------------
G---8-8-----8-8-----8-9-8-6----------6-6-----6-8-6-4--------
D-----------------------------------------------------------
A-----------------------------------------------------------
E-----------------------------------------------------------

e-----4-4---------3-3-3-3---3-6-3-4
B----------------------------------
G-4-4-----4-6-4-3------------------
D----------------------------------
A----------------------------------
E----------------------------------


2do requinto:

e-4-6-6/7-9-11-11--11-9-7-7-6-4
B------------------------------
G------------------------------
D------------------------------
A------------------------------
E------------------------------


3er requinto:

e-4----
B---8-7
G------
D------
A------
E------


4to requinto:

e-5-7-7/8-8-7-6-6/7-6-4
B----------------------
G----------------------
D----------------------
A----------------------
E----------------------


5to requinto:

e-7-----7-7-----7-7----------6-6-6-6-----6-6---------4-4-4-4
B-----------------------------------------------------------
G---8-8-----8-8-----8-9-8-6----------6-6-----6-8-6-4--------
D-----------------------------------------------------------
A-----------------------------------------------------------
E-----------------------------------------------------------

e-----4-4---------3-3-3-3---3-6-3-4
B----------------------------------
G-4-4-----4-6-4-3------------------
D----------------------------------
A----------------------------------
E----------------------------------


6to y último requinto:

e-7----7-7-----7-7-----7-7-----7-7----4
B-------------------------------------4
G--8-8-----8-8-----8-8-----8-8---------
D--------------------------------------
A--------------------------------------
E--------------------------------------


Saludos!


FeRn
Suggest correction
Creating personal tab
Creating personal tab
You can edit any tab online and save it as your Personal.

You can edit, replace or remove any tab part or add personal notes – all changes will be seen only by you.

Personal tabs can be accessed anytime from any device, even offline.
Learn more »
Give kudos to tab author, rate the tab!
1 2 3 4 5
comments
print report bad tab
guest
Wanna post a correction for this tab? Suggest correction