Oops, an error
Loading. Please wait.

Veronica tab

31 views 1 this week
no commentswrite comment
1 2 3 4 5
3 more votes to show rating
add to favorites
×
Save as Personal and add changes to this tab that will be seen only by you. Learn more ›
×
You can save this tab as Personal to edit and correct it or add notes. All changes will be seen only by you. Learn more »
launch autoscroll
font size
0
reset
how to read this tab
guitar tuner
edit
Autoscroll
slow
fast
+/-
esc
set tempo
stop
**Requinto**

este es el requinto de esta linda cancion

soy nuevo en esto y ojala y les sirva... los acordes se los debo..

****no se el punteo exacto escuchenla****

3|--------------------------------------------------
2|--7-----------------------------------------------
1|------12-12-12-12-12-12-12-12-12-12-12-12-12-12---

3|----------------------------------------------------
2|----------------------------------------------------
1|-10-10-10-10-10-10-10-10-12-12-12-12-12-12-12-12-12-


3|----------------------------------------------------
2|----------------------------------------------------
1|-13-13-13-13-13-13-13-13-13-13-13-13-13-13----------

3|----------------------------------------------------
2|----------------------------------------------------
1|-11-11-11-11-11-11-11-11-13-13-13-13-13-13-13-13-13-

4|-------------------------------------------------------------
3|-------------------------------------10-10------------10-9---
2|---7-7-8-10--8-8---8-7-8-7--7-7-8----------8-8-h-10-8----------
1|---5-5-7--8--7-7---7-5-7-5--5-5-7----------------------------


*********************************************************************
*Donde quiera que estes Vero.. Te quiero muchoooooooooooooooooooo !!!*
*********************************************************************

            
            
Suggest correction
Creating personal tab
Creating personal tab
You can edit any tab online and save it as your Personal.

You can edit, replace or remove any tab part or add personal notes – all changes will be seen only by you.

Personal tabs can be accessed anytime from any device, even offline.
Learn more »
Give kudos to tab author, rate the tab!
1 2 3 4 5
comments
print report bad tab
guest
Wanna post a correction for this tab? Suggest correction