Oops, an error
Loading. Please wait.

Wendolly tab

version 2
version 2

Whole song

35 views 3 this week
no commentswrite comment
1 2 3 4 5
3 more votes to show rating
add to favorites
×
Save as Personal and add changes to this tab that will be seen only by you. Learn more ›
×
You can save this tab as Personal to edit and correct it or add notes. All changes will be seen only by you. Learn more »
launch autoscroll
font size
0
reset
how to read this tab
guitar tuner
edit
Autoscroll
slow
fast
+/-
esc
set tempo
stop
Esta canción inicia con este requinto que saque, es muy fácil y sencillo de tocar 
pero se escucha muy bien con el acompañamiento.  

     REm         SOLm              DO7                 FA       LA7

E|---0--1--3--5-|6--6--5--3--3--1-|0--------0--7\8--6-|5--5--3--1--1--0--|
B|3-------------|-----------------|---1--3------------|------------------|
G|2-------------|-----------------|-------------------|------------------|
D|--------------|-----------------|-------------------|------------------|
A|--------------|-----------------|-------------------|------------------|
E|--------------|-----------------|-------------------|------------------|


REm                 SOLm              LA7                 REm       LA7

---------0--1--3\5-|3--3--1--0--0----|---0--0\1--0-------|---5\6--5--3--1-0
3-----3------------|---------------3-|2-------------3--2-|3----------------
2--2---------------|-----------------|-------------------|2----------------
-------------------|-----------------|-------------------|-----------------
-------------------|-----------------|-------------------|-----------------
-------------------|-----------------|-------------------|-----------------


   REm                LA7       REm

|--------0--1--3\5--|--3--1--0--1---------|
|--3--3-------------|-----------3---------|
|--2----------------|-----------2---------|
|-------------------|---------------------|
|-------------------|---------------------|
|-------------------|---------------------|


    REm       SOLm           DO7
Tan dentro de mí conservo el calor
DO7         FA     LA7         REm
que me hace sentir conservo tu amor
              SOLm             REm
tan dentro de mí que aun puedo vivir
            LA7              REm
muriendo de amor muriendo de ti.

     REm        SOLm               DO7
Como buscan las olas la orilla del mar
              FA       LA7             REm
como busca un marino su puerto y su hogar
                    SOLm                 LA7
yo he buscado en mi alma queriéndote hallar
                REm LA7       REm
y tan solo encontré mi soledad.

    REm            SOLm             DO7
A pesar de estar lejos tan lejos de ti
                   FA     LA7       REm
a pesar de otros besos quizás wendolyne
                     SOLm                 LA7
aun recuerdes el tiempo de aquel nuestro amor
                   REm   LA7  REm
aun te acuerdes de mi.
        REm      SOLm              DO7                  FA       LA7    REm

E|---0--1--3--5-|6--6--5--3--3--1-|0--8--8--8\10--8--6-|5--5--3--1--1--0---
B|3-------------|-----------------|--------------------|------------------3
G|2-------------|-----------------|--------------------|------------------2
D|--------------|-----------------|--------------------|-------------------
A|--------------|-----------------|--------------------|-------------------
E|--------------|-----------------|--------------------|-------------------


 REm            SOLm              LA7                 REm      LA7

|------1--3--5-|3--3--1--0--0----|---0--0\1--0-------|---5\6--5--3--1--0
|---3----------|---------------3-|2-------------3--2-|3-----------------
|2-------------|-----------------|-------------------|2-----------------
|--------------|-----------------|-------------------|------------------
|--------------|-----------------|-------------------|------------------
|--------------|-----------------|-------------------|------------------


   REm               LA7       REm

|--------0--1--3\5-|-3--1--0--1---------|
|--3--3------------|----------3---------|
|--2---------------|----------2---------|
|------------------|--------------------|
|------------------|--------------------|
|------------------|--------------------|


 REm                 SOLm                      DO7
Aun recuerdo aquel ayer cuando estabas junto a mi
                    FA       LA7      REm
tu me hablabas del amor yo podía sonreír
                    SOLm     REm      LA7    REm
aun recuerdo aquel amor y ahora te alejas de mi.


   REm            SOLm                   DO7
Le he pedido al silencio que me hable de ti
                      FA       LA7     REm
que he vagado en la noche queriéndote oír
                   SOLm               LA7
y al murmullo del viento le he oído decir...
               REm   SOL   REm
tu nombre wendolyne.


Esta canción se la dedico con mucho cariño para mi esposa.

            
            
Suggest correction
Creating personal tab
Creating personal tab
You can edit any tab online and save it as your Personal.

You can edit, replace or remove any tab part or add personal notes – all changes will be seen only by you.

Personal tabs can be accessed anytime from any device, even offline.
Learn more »
Give kudos to tab author, rate the tab!
1 2 3 4 5
comments
print report bad tab
guest
Wanna post a correction for this tab? Suggest correction