Oops, an error
Loading. Please wait.

Wendolyne tab

version 1
version 1

Whole song

125 views 1 this week
no commentswrite comment
1 2 3 4 5
3 more votes to show rating
add to favorites
×
Save as Personal and add changes to this tab that will be seen only by you. Learn more ›
×
You can save this tab as Personal to edit and correct it or add notes. All changes will be seen only by you. Learn more »
launch autoscroll
font size
0
reset
how to read this tab
guitar tuner
edit
Autoscroll
slow
fast
+/-
esc
set tempo
stop
Hola esta tablatura está muy fácil espero les sea de mucha ayuda,
es la más exacta a mi parecer y va dedicada a toda la banda que
quiere a prender a tocar, y también  va para una chica muy linda
que se llama carolina... bueno cualquier duda aqui les dejo mi correo
scom_dhr@ sale bye.


Intro:

E -----------------------------------------------------------------
A -----------------------------------------------------------------
D -----------------------------------------------------------------
G -----------------------------------------------------------------
B -4-6----------------------------6--6--6-4-2-4----6---6---6-------
E -----2--4-6-7-------7-6-4--4-2-------2-------------7---6---4-----

Y junto con la parte que esta separada en la tablatura de arriba se
toca al mismo tiempo un requinto muy facil que es el R1,
SE PUNTEA MUCHAS VECES LAS MCUERDAS (X?).

                R1
E -----------------------------------------------------------------
A -----------------------------------------------------------------
D -----------------------------------------------------------------
G -----------------------------------------------------------------
B -----------------------------------------------------------------
E ---7(x11)----10(x11)---11(x15)-----------------------------------

            Gm              C                    F
Tan dentro de mí conservo el calor que me hace sentir,
              Dm                Gm                  Dm
conservo tu amor tan dentro de mí que aún puedo vivir
              A7            Dm
muriendo de amor muriendo de ti.


               Gm                 C                  F
Como buscan las olas la orilla del mar, como busca un marino
                Dm                     Gm
su puerto y su hogar yo he buscado en mi alma
             A7                  Dm   A7      Dm
queriéndote hallar y tan solo encontre mi  soledad.

E -----------------------------------------------------------------
A -----------------------------------------------------------------
D -----------------------------------------------------------------
G -----------------------------------------------------------------
B -----------------------------------------------------------6(x18)
E -7(x9)--6(x9)--4(x18)---6(x9)--4(x9)--2(x18)---4(x9)-2(x9)--------


                Gm                C
A pesar de estar lejos tan lejos de mí
                 F               Dm
A pesar de otros besos quizas wendolyne
                   Gm                      A7                   Dm
aún recuerdes el tiempo de aquel nuestro amor aún te acuerdes de mí.

E -----------------------------------------------------------------
A -----------------------------------------------------------------
D -----------------------------------------------------------------
G -----------------------------------------------------------------
B -4-6---------------------------7-6----4-6--------------7--6-7-6-7-
E -----2--4-6-6/7---6-7--6-7-6-4-----------4-7/9-7-6-6-4-----


E -----------------------------------------------------------------
A -----------------------------------------------------------------
D -----------------------------------------------------------------
G ----------------------------7-------------------------------------
B 6-4----4-6-7---7-6--4-6--4-6--------------7-6-4--------------------
E ------------4-4---------------------6-6-4--------------------------

           Gm                            C
Wendolyne, se quiebra mi voz al nombrarte
                                  F
mi mirar se nubla al recordarte
                          Dm
y pensar que en dos manos
                           Gm
un día se unieron dos almas
                     A               Dm
y de aquello de ayer, ya nada quedó.


                   Gm                         C
Aún recuerdo aquel ayer cuando estabas junto a mí
                    F               Dm
tú me hablabas del amor yo podía soreir
                     Gm      Dm       A7      Dm
aun recuerdo aquel amor y ahora te alejas de mí.

                   Gm                    C
Le he pedido al silencio que me hable de ti
                  F               Dm
he vagado en las noches queriendote oir
                  Gm                A7
y al sonido del viento le he oído decir

E -----------------------------------------------------------------
A -----------------------------------------------------------------
D -----------------------------------------------------------------
G -----------------------------------------------------------------
B -----------------------------------------------------------6(x18)
E -7(x9)--6(x9)--4(x18)---6(x9)--4(x9)--2(x18)---4(x9)-2(x9)--------

        Dm
tu nombre wendolyne.

TE QUIERO ERELI ATT:BOUGY CARAMELOSO

            
            
Suggest correction
Creating personal tab
Creating personal tab
You can edit any tab online and save it as your Personal.

You can edit, replace or remove any tab part or add personal notes – all changes will be seen only by you.

Personal tabs can be accessed anytime from any device, even offline.
Learn more »
Give kudos to tab author, rate the tab!
1 2 3 4 5
comments
print report bad tab
guest
Wanna post a correction for this tab? Suggest correction