Oops, an error
Loading. Please wait.

Wendolyne tab

version 2
version 2

Whole song

79 views 1 this week
no commentswrite comment
1 2 3 4 5
3 more votes to show rating
add to favorites
×
Save as Personal and add changes to this tab that will be seen only by you. Learn more ›
×
You can save this tab as Personal to edit and correct it or add notes. All changes will be seen only by you. Learn more »
launch autoscroll
font size
0
reset
how to read this tab
guitar tuner
edit
Autoscroll
slow
fast
+/-
esc
set tempo
stop
ESTA CANCION, LA RONDALLA ANTIGUA LA TOCABA ASI,
Y LA ACTUAL LA TOCA MEDIO TONO ARRIBA. (notas y tablaturas)
CUAL SEA DE LAS DOS SUENA BIEN.


                 "WENDOLYNE"


    Gm    C7    F     Dm    A7    Am    Dmº
e|--3-- --3-- --1-- --5-- --5-- --5-- --10--
b|--3-- --5-- --1-- --6-- --5-- --5-- --10--
G|--3-- --3-- --2-- --7-- --6-- --6-- --10--
D|--5-- --5-- --3-- --7-- --5-- --7-- ------
A|--5-- --3-- --3-- --5-- --7-- --7-- ------
E|--3-- --3-- --1-- --5-- --5-- --5-- ------


e|-------------------------------------------
b|--3-5-6---8-10-11----11-10/8-8----8/6-6-5--
G|-------------------------------------------
D|-------------------------------------------
A|-------------------------------------------
E|-------------------------------------------


e|---------------10-10-10-10-10-10-10-10-10--   Guitarra 2
b|----------------------------------------------es un tremoledo


e|---------------------5---5---5-5--
b|--5-5h6-5/3-3-2-3------6---5---6--
G|-------------------------------7--
D|-------------------------------7--
A|-------------------------------5--
E|-------------------------------5--


e|9-9-9-9-9-9-9-9-9-10-10-10-10-10--
b|----------------------------------


              Gm               C7                 F
Tan dentro de mí conservo el calor que me hace sentir
             Dm                Gm                 Dm
conservo tu amor tan dentro de mí que aún puedo vivir
             A7              Dm
muriendo de amor muriendo de ti


                Gm                 C7                   F
Como buscan las olas la orilla del mar, como busca un marino

e|--------------66666666555555555555553333333333333333335555
b|----------------------------------------------------------
                 Am                        Gm
su puerto y su hogar yo he buscado en mi alma

e|5555333333333331111111111111111111111113333
b|-------------------------------------------
              A7                   Dm  A7      Dm
queriéndote hallar y tan solo encontre mi  soledad

e|333311111111000000000000000000000000------------
b|------------------------------------------------


                   Gm               C7
A pesar de estar lejos tan lejos de mí
                 F                 Am
A pesar de otros besos quizas wendolyne
                   Gm                     A7                     Dm
aún recuerdes el tiempo de aquel nuestro amor aún te acuerdes de mí


              POEMA

         Gm                            C7
Wendolyne, se quiebra mi voz al nombrarte
                       F
mi mirar se nubla al recordarte
    Dm
y pensar que en dos manos
      Gm                   Dm
un día se unieron dos almas
                    A7
y de aquello de ayer
             Dm
ya nada quedó


e|----0-0h1----1/3-5-6----5-6----5-6-5-3------
b|--3------------------------------------6-5--
G|--------------------------------------------
D|--------------------------------------------
A|--------------------------------------------
E|--------------------------------------------


e|--------6h8-6-5----3------------------------
b|--3-5-6--------------6-5----5-6-5-6-5-3-----
G|--------------------------------------------
D|--------------------------------------------
A|--------------------------------------------
E|--------------------------------------------


e|--------------------------------------------
b|----------3-6-6h8----8-6-5----3-5-3-5-3-2---
G|--3-4-4h6-----------------------------------
D|--------------------------------------------
A|--------------------------------------------
E|--------------------------------------------


e|5-5/3-3--------
b|--------6-5-3--
G|---------------
D|---------------
A|---------------
E|---------------


                    Gm                         C7
Aún recuerdo aquel ayer cuando estabas junto a mí
                    F              Dm
tú me hablabas del amor yo podía soreir
                    Gm  Dm      A7           Dm
aun recuerdo aquel amor y ahora te alejas de mí


                   Gm                    C7
Le he pedido al silencio que me hable de ti
                 F                   Am
he vagado en las noches queriendote oir
                  Gm                A7
y al sonido del viento le he oído decir
               Dm    Gm    Dmº
tu nombre wendolyne.

            
            
Suggest correction
Creating personal tab
Creating personal tab
You can edit any tab online and save it as your Personal.

You can edit, replace or remove any tab part or add personal notes – all changes will be seen only by you.

Personal tabs can be accessed anytime from any device, even offline.
Learn more »
Give kudos to tab author, rate the tab!
1 2 3 4 5
comments
print report bad tab
guest
Wanna post a correction for this tab? Suggest correction