Oops, an error
Loading. Please wait.

Wendolyne tab

version 3
version 3

Whole song

24 views 3 this week
no commentswrite comment
1 2 3 4 5
3 more votes to show rating
add to favorites
×
Save as Personal and add changes to this tab that will be seen only by you. Learn more ›
×
You can save this tab as Personal to edit and correct it or add notes. All changes will be seen only by you. Learn more »
launch autoscroll
font size
0
reset
how to read this tab
guitar tuner
edit
Autoscroll
slow
fast
+/-
esc
set tempo
stop
la guitarra debe estar afinada en Gb

                      Am                      A7
eb |-----------------|-----------------------|----------------------|
Bb |-----7-8--10-12--|12h13--13-12-10-8h10-8-|--7-7-8-5h7-----------|
Gb |--9--------------|-----------------------|-------------9-7-9v---|
Db |-----------------|-----------------------|----------------------|
Ab |-----------------|-----------------------|----------------------|
Eb |-----------------|-----------------------|----------------------|
    Em
eb |-7-7-7-----------|
Bb |--8-7-5----------|
Gb |-----------------|
Db |-----------------|
Ab |-----------------|
Eb |-----------------|

                Am
  TAN DENTRO DE Mí
              D7
CONCERVO EL CALOR
                G
QUE ME HACE SENTIR
             Em
CONCERVO TU AMOR.
              Am
TAN DENTRO DE Mí
                Em
QUE AUN PUEDO VIVIR
             A7
MURIENDO DE AMOR
             Em
MURIENDO DE TI.


                  Am
COMO BUSCAN LAS OLAS
              D7
LA ORILLA DEL MAR
                G
COMO BUSCA UN MARINO
                Em
SU PUERTO Y SU HOGAR.
                    Am
YO HE BUSCADO EN MI ALMA
             D7
QUERIENDOTE HALLAR
               Em
Y TAN SOLO ENCONTRE
A7       Em
MI SOLEDAD.


                   Am
Y APESAR DE ESTAR LEJOS
             D7
TAN LEJOS DE TI
                 G
APESAR DE OTROS BESOS
             Em
QUIZAS WENDOLYNE
                   Am
AUN RECUERDES EL TIEMPO
                  A7
DE AQUEL NUESTRO AMOR
                   Em
AUN TE ACUERDES DE Mi

                        Am
eb |--------------------|------------------------------|
Bb |----7-7h7---8h10-12-|12h3--12-13-12----------------|
Gb |--9-----------------|-----------------9-11-9-11--9-|
Db |--------------------|------------------------------|
Ab |--------------------|------------------------------|
Eb |--------------------|------------------------------|

   D7                        G
eb |------------------8h10-8-|5h7--7-5--------------|
Bb |-------------------------|---------8--7-8-7-8-7-|
Gb |7v--7----9---9h11--------|----------------------|
Db |-------------------------|----------------------|
Ab |-------------------------|----------------------|
Eb |-------------------------|----------------------|
   Em                   Am                      A7
eb |--------------------|-----------------------|----
Bb |-5v---------------8-|8/10--10-8-7-5-7-5-7-5-|----
Gb |-----4--5--7--7/9---|-----------------------|7v--
Db |--------------------|-----------------------|----
Ab |--------------------|-----------------------|----
Eb |--------------------|-----------------------|----
                       E
eb |-------------------|------------------------|
Bb |-12-10h12-10-------|------------------------|
Gb |-------------12-11-|9-----------------------|
Db |-------------------|------------------------|
Ab |-------------------|------------------------|
Eb |-------------------|------------------------|
                   Am
AUN RECUERDO AQUEL AYER
                       D7
CUANDO ESTAVAS JUNTO A Mi
                    G
TU ME HABLABAS DEL AMOR
              Em
YO SOLIA SONREIR
                    Am
AUN RECUERDO AQUEL AMOR
  Em           A7     Em
Y AHORA TE ALEJAS DE Mi

                     Am
LA HE PEDIDO AL SILENCIO
                 D7
QUE ME HABLE DE TI
                  G
HE VAGADO EN LAS NOCHES
             Em
QUERIENDOTE OIR
                    Am
Y AL MURMULLO DEL VIENTO
              D7
LE HE OIDO DECIR
                    Am  A7  Em
TU NOMBRE WENDOLYNE

            
            
Suggest correction
Creating personal tab
Creating personal tab
You can edit any tab online and save it as your Personal.

You can edit, replace or remove any tab part or add personal notes – all changes will be seen only by you.

Personal tabs can be accessed anytime from any device, even offline.
Learn more »
Give kudos to tab author, rate the tab!
1 2 3 4 5
comments
print report bad tab
guest
Wanna post a correction for this tab? Suggest correction