Oops, an error
Loading. Please wait.

Para Siempre tab

by La Rosa
51 views 1 this week
no commentswrite comment
1 2 3 4 5
3 more votes to show rating
add to favorites
×
Save as Personal and add changes to this tab that will be seen only by you. Learn more ›
×
You can save this tab as Personal to edit and correct it or add notes. All changes will be seen only by you. Learn more »
launch autoscroll
font size
0
reset
how to read this tab
guitar tuner
edit
Autoscroll
slow
fast
+/-
esc
set tempo
stop
ESTA ES LA INTRO DE TROMPETA

E-------------121212Sl17--
B-------131313------------
G-141414------------------ X3
D-------------------------
A-------------------------
E-------------------------
EL BAJO MARCA E,G,A Y
 ENTRA LA GUITARRA

E-------------------------------------------------------
B-5----------------5----------------------5-6-5---5-6-5-
G--7-555-444-2-4-5---7-555-444-2-4-5----5--------5------
D-------------------------------------7---------7-------
A-------------------------------------------------------
E-------------------------------------------------------

E-5H6-4H5-3H4-2H3----
B-5H6-4H5-3H4-2H3----
G--------------------
D--------------------
A--------------------
E--------------------

DESPUES VIENE LA TROMPETA

Y VIENE LA GUITARRA DE NUEVO

E--------------------------------------------------------
B-3------------------3-----------------------------------
G---5-444-222-0-2-4----5-444-222-0-2-4---4-5-7-5---------
D--------------------------------------------------------
A--------------------------------------------------------
E--------------------------------------------------------

EL BAJO MARCA E,G,A Y ENTRA LA VOZ

   Am
   caminaba por la calle
   Am
   iba sin persar en nada
                  G
   cuando de repente

   la ciudad quedo parada

   todo el mundo se dio vuelta
    G              Am
   y yo te vi mi vida

PARA ENTRAR DE NUEVO EL BAJO MARCA
 E-----------
 B-----------
 G-----------
 D-----------
 A-----------
 E-0-0-2-3-5-


2) eres como una princesa
   mas bonita que la luna
   eres tan hermosa
   yo que no buscaba nada
   simplemente caminaba
   y tuve esa sorpresa

 PARA ENTRAR AL CORO EL BAJO MARCA

 E-----------
 B-----------
 G-----------
 D-----------
 A-----------
 E-0-0-2-3-5-

       Am   G#      G
coro: y yo te vi te vi
                     C
      yo te vi para siempre
                     E
      y canto con sabor
                     Am
      este ritmo caliente

      yo te vi te vi

      yo te vi para siempre

      y bailo sin parar

      y se lo digo a mi gente

  y se repite toda la cancion

            
            
Suggest correction
Creating personal tab
Creating personal tab
You can edit any tab online and save it as your Personal.

You can edit, replace or remove any tab part or add personal notes – all changes will be seen only by you.

Personal tabs can be accessed anytime from any device, even offline.
Learn more »
Give kudos to tab author, rate the tab!
1 2 3 4 5
comments
print report bad tab
guest
Wanna post a correction for this tab? Suggest correction