Oops, an error
Loading. Please wait.

Que Le Bon Lemporte Bass Tab

251 views 1 this week
no commentswrite comment
1 2 3 4 5
3 more votes to show rating
add to favorites
launch autoscroll
font size
0
reset
guitar tuner
Autoscroll
slow
fast
+/-
esc
set tempo
stop
Help us to improve Ultimate-Guitar.com Take our survey!
×
Author
Difficulty
intermediate
-------------------------------------------------------------------------------
                         Que le bon l'emporte - La Ruda
-------------------------------------------------------------------------------

http://www.laruda.fr/

Tabbed By : superfranki

Tuning: Standard

Version: http://www.youtube.com/watch?v=84LCEDLhMrg


Riff 1 :
G|--------------|---------------|--------------|----------------|
D|--------------|---------------|-4------------|----------------|
A|----4--5--4-2-|----4-5-7--5-7-|----4--5--4-2-|----4-5-7-5-4-7-|
E|-2------------|-5-------------|--------------|-5--------------|

Variation:
G|--------------|---------------|--------------|----------------|
D|--------------|---------------|-4------------|----------------|
A|----4--5--4-2-|----4-5-7--5-7-|----4--5--4-2-|----4-5-7-5-4---|
E|-2------------|-5-------------|--------------|-5------------5-|

Riff 2 :
G|------------|
D|------------|
A|------------|
E|-2~--5~--0~-|

Riff 3 :
G|--------------------|
D|--------------------|
A|-55--77--44--55-5---|
E|------------------5-|

Riff 4 :
G|---------------------|
D|---------------------|
A|-5---57---74---455---|
E|---5----7----4----55-|

Solo:
G|----------------------------------|
D|----------------------------------| x2
A|-9-9-8-8-7-7-5-5------------------|
E|-----------------9-9-7-7-5-7-9-10-|

G|------------------------------------|------------------------------------|
D|-----7-7-9-9-7-9-11-11-7-7-9-7-9-11-|-----7-7-9-9-7-9-11-11-7-7-9-7-6-7--| x3
A|-9-9--------------------------------|-9-9--------------------------------|
E|------------------------------------|------------------------------------|

G|------------------------------------|--------------------|
D|-----7-7-9-9-7-9-11-11-7-7-9-7-9-11-|-----7-7-9-9-7-9-11-|
A|-9-9--------------------------------|-9-9----------------|
E|------------------------------------|--------------------|

Ending:
G|------------|
D|------------|
A|-4444-5555~-|
E|------------|

Riff 1 x4
Riff 2
Riff 3
Riff 4 x3
Riff 1 x4
Riff 2
Riff 3
Riff 4 x3
Solo
Riff 1 x2
Riff 3
Riff 4 x7
Ending

| /  slide up 
| \  slide down
| h  hammer-on
| p  pull-off
| ~  vibrato
| +  harmonic
| x  Mute note
===============================================================================
Suggest correction
Give kudos to tab author, rate the tab!
1 2 3 4 5
comments
print report bad tab
guest
You may want to rate the tab now too:
select rating
Wanna post a correction for this tab? Suggest correction