Oops, an error
Loading. Please wait.

Suerte Tab

by La Saga
11 views 1 this week
no commentswrite comment
1 2 3 4 5
3 more votes to show rating
add to favorites
×
Save as Personal and add changes to this tab that will be seen only by you. Learn more ›
×
You can save this tab as Personal to edit and correct it or add notes. All changes will be seen only by you. Learn more »
save as personal
new!
launch autoscroll
font size
0
reset
how to read this tab
guitar tuner
Autoscroll
slow
fast
+/-
esc
set tempo
stop
INTRO
D-G-D-G x4

D           G                         D
Te despertó la luz del cerro al llegar.
D           G                         D
Ya te arrimó a la ciudad tu ilusión.
D               G                     D
Levanta el sol, una mochila te empuja.
D            G                        D
Y vos sentís mientras bajas del camión:

A                         G
Que ahora sos uno más por acá.

D           G                            D  G
Todo cambió, nunca habías visto este paso.
D              G                         D  G
Te acostumbras, pronto aprendés a bailar.
D             G                      D  G
Cuando volvés nadie te ve como antes:
D            G                      D   G
No sos aquel, vos venís de otro lugar.
A                             G
Que ya no sos ni de acá ni de allá.

D        G                        D
Y cuanto más lejos más te acordás,
G                            A
pero el pago lo vas a encontrar donde ayer.
      Bm          G    A                           D
Y esa suerte que ya te gano te quiere hacer más fuerte.


Riff Primer Guitarra

E--2-2-2-2----3-3-3-3----2-2-2-2---------------------------
B---3-3-3-3----3-3-3-3----3-3-3-3--------------------------
G----------------------------------------------------------
D----------------------------------------------------------
A----------------------------------------------------------
E----------------------------------------------------------
Cuesta dormir, hoy los recuerdos te alcanzan.

Alrededor nadie despierta por vos.


Riff Primer Guitarra

E--2-2-2-2----3-3-3-3----2-2-2-2---------------------------
B---3-3-3-3----3-3-3-3----3-3-3-3--------------------------
G----------------------------------------------------------
D----------------------------------------------------------
A----------------------------------------------------------
E----------------------------------------------------------


Riff Segunda Guitarra Guitarra

E----------------------------------------------------------
B-7--7-8--8-10--10-8-------7--7-8--8-10--10----------------
G----------------------------------------------------------
D----------------------------------------------------------
A----------------------------------------------------------
E----------------------------------------------------------

Tu corazón va resbalando en el miedo.

Y vos sentís que hay una sola razón.


A                            G
Que ya no sos ni de acá ni de allá.

D        G                        D
Y cuanto más lejos más te acordás,
G                           A
pero el pago lo vas a encontrar donde ayer.
      Bm          G    A
Y esa suerte que ya te gano...


D          G                D
Y Cuantas ramblas vas a caminar.
   G                          A
Será que hay que aprender a pisar sin mirar.
     Bm          G    A                        D-G-D-G x2   D...
Y saber que esta vez reirás, porque así es la suerte.


Para Johana mi gran amor y compañera.
Suggest correction
Give kudos to tab author, rate the tab!
1 2 3 4 5
comments
print report bad tab
guest
Wanna post a correction for this tab? Suggest correction