Oops, an error
Loading. Please wait.
2 views 1 this week
no commentswrite comment
1 2 3 4 5
3 more votes to show rating
add to favorites
launch autoscroll
font size
0
reset
how to read this tab
guitar tuner
×
Best way to learn
"El Beso"
Autoscroll
slow
fast
+/-
esc
set tempo
stop
Intro

(con delay)

|----------------------------------------------------|
|----------------------------------------------------|
|----------------------------------------------------|
|----------------------------------------------------|
|-9/11---9-9-9------------9-----9-9/11---9-9-9-----|
|---------------10----10---10-----------------10-|


|-----------------------------------------------------|
|-----------------------------------------------------|
|-----------------------------------------------------|
|-----------------------------------------------------|
|-9/11---9-9-9------------9-----9-9/11---9--11/12-|
|---------------10----10---10----------------------|


Riff1

|----------------------------|-----------------------------|
|----------------------------|-----------------------------|
|----------------------------|-----------------------------|
|----------------------------|-----------------------------| x2
|------(4)-4^5-4-------------|------(4)-4^5-4--------------|
|-0-3------------(3)---7-6-7-|-0-3------------(3)---7-6-7--|


E5               F#5              E5                 F#5/G5/F#5
Se acercó despacio, con ojos cerrados vió la perfección del sol
E5          F#5            E5            F#5/G5/F#5
  metiéndose a través de la ventana abierta.

E5          F#5       G5        F#5
Comparó esa imagen con su boca ansiosa,
E5          F#5       G5        F#5
y advinó el momento húmedo y tremendo,
E5          F#5       G5        F#5
que ahogue el fuego que desde su vientre
E5       F#5  G5    F#5
Te quemaba la garganta.

Riff1 x2

|----------------------------|
|----------------------------|
|----------------------------|
|----------------------------|
|------(4)-4^5-4-------------|
|-0-3------------(3)---7-6-7-|

-----------------------------|
-----------------------------|
-----------------------------|
-----------------------------|
------(4)-4^5-4--------------|
-0-3------------(3)---7-6-7--|


Riff2

  G        D        A
|-------------------------------------|
|-------------------------------------|
|-----------------(6)--6^7-6--2-4-(2)-|
|-------4^5-4-5-7---------------------|
|---2-5-------------------------------|
|-3-----------------------------------|

  G       D           A
|--------------------------------|
|---------------------------10---|
|------------------(6)-7/9---9---|
|-------4^5-4-5-7----------------|
|---2-5--------------------------|
|-3------------------------------|


  G        D        A
|-------------------------------------|
|-------------------------------------|
|-----------------(6)--6^7-6--2-4-(2)-|
|-------4^5-4-5-7---------------------|
|---2-5-------------------------------|
|-3-----------------------------------|

  G       D           A             C
|--------------------------------|------|
|---------------------------10---|------|
|------------------(6)-7/9---9---|------|
|-------4^5-4-5-7----------------|------|
|---2-5--------------------------|------|
|-3------------------------------|------|


Con sus labios tersos,
rescató la llave de ese instinto nuevo
que desde su infancia espió en silencio.
Y con su lengua firme,
abrió la puerta de un oscuro cielo

y en un sólo beso,
encontró la fuerza que arrolló el misterio,
Pero nunca más volvío a besar a nadie
por miedo al silencio con el que esa tarde
respondió su espejo.


Riff1 x2

|----------------------------|
|----------------------------|
|----------------------------|
|----------------------------|
|------(4)-4^5-4-------------|
|-0-3------------(3)---7-6-7-|

-----------------------------|
-----------------------------|
-----------------------------|
-----------------------------|
------(4)-4^5-4--------------|
-0-3------------(3)---7-6-7--|


Riff2

  G        D        A
|-------------------------------------|
|-------------------------------------|
|-----------------(6)--6^7-6--2-4-(2)-|
|-------4^5-4-5-7---------------------|
|---2-5-------------------------------|
|-3-----------------------------------|

  G       D           A
|--------------------------------|
|---------------------------10---|
|------------------(6)-7/9---9---|
|-------4^5-4-5-7----------------|
|---2-5--------------------------|
|-3------------------------------|


  G        D        A
|-------------------------------------|
|-------------------------------------|
|-----------------(6)--6^7-6--2-4-(2)-|
|-------4^5-4-5-7---------------------|
|---2-5-------------------------------|
|-3-----------------------------------|

  G       D           A             C
|--------------------------------|------|
|---------------------------10---|------|
|------------------(6)-7/9---9---|------|
|-------4^5-4-5-7----------------|------|
|---2-5--------------------------|------|
|-3------------------------------|------|


E5               F#5              E5                 F#5/G5/F#5
Se acercó despacio, con ojos cerrados vió la perfección del sol
E5          F#5            E5            F#5/G5/F#5
  metiéndose a través de la ventana abierta.

E5          F#5       G5        F#5
Comparó esa imagen con su boca ansiosa,
E5          F#5       G5        F#5
y advinó el momento húmedo y tremendo,
E5          F#5       G5        F#5
que ahogue el fuego que desde su vientre
E5       F#5  G5    F#5
Te quemaba la garganta.

|----------------------------|
|----------------------------|
|----------------------------|
|----------------------------|
|------(4)-4^5-4-------------|
|-0-3------------(3)---7-6-7-|

-----------------------------|
-----------------------------|
-----------------------------|
-----------------------------|
------(4)-4^5-4--------------|
-0-3------------(3)---7-6-7--|


|----------------------------|
|----------------------------|
|----------------------------|
|----------------------------|
|------(4)-4^5-4-------------|
|-0-3------------(3)---7-6-7-|

------------------------------------------|
------------------------------------------|
------------------------------------------|
----------------------------------------2-|
------(4)-4^5-4-------------------------2-|
-0-3------------(3)---7-6-7-6-7-6-7-6---0-|


FIN.
Suggest correction
Give kudos to tab author, rate the tab!
1 2 3 4 5
comments
print report bad tab
guest
You may want to rate the tab now too:
select rating
Wanna post a correction for this tab? Suggest correction