Oops, an error
Loading. Please wait.
23 views 3 this week
no commentswrite comment
1 2 3 4 5
3 more votes to show rating
add to favorites
launch autoscroll
font size
0
reset
how to read this tab
guitar tuner
×
Best way to learn
"HIV"
Autoscroll
slow
fast
+/-
esc
set tempo
stop
Intro:

 Em         Am               Em
|---------------------------------|
|---------------------------------|
|-2/4--2--------------------------|
|--------5--2/4---4-7-------------|
|---------------------5-5----7/2--|
|---------------------------------|

  Em        Am                   Em
|-----------------------------------|
|-----------------------------------|
|-2/4---2-7---9/2/4---7-9-11-12-11--|
|-----------------------------------|
|-----------------------------------|
|-----------------------------------|


Em                    Am                       Em
El pueblo escribió esta historia sobre sus techos
Em                  Am                Em
y sobre mi sombre pesa como el destierro
D               C                   Em
sólo quedó el recelo por lo que hiere
D                  C                 Em
lo hermoso sólo se da en lo que se muere.


Em             Am                  Em
Nadie hubiera pensado que era utopía
Em               Am                Em
que todo podría cambiar, nadie diría
D              C                  Em
engaños y desengaños son consecuentes
D                         C                Em
y el dolo que trae el fracaso es como la muerte


   Em                         Am
|---------------------|-------------------|
|------------13-(12)--|-----------15-(13)-|
|----11-12------------|----11-12----------|
|-14------------------|-14----------------|
|---------------------|-------------------|
|---------------------|-------------------|

     Am               G        D
|----------------------(15)-(15)-14-14--12-12-10-10--|
|-10-10-10-12-13-------------------------------------|
|----------------------------------------------------|
|----------------------------------------------------|
|----------------------------------------------------|
|----------------------------------------------------|


   C               Em
|--------------------------|
|-/13------15-13-12/13-12--|
|-/12------14-12-----------|
|--------------------------|
|--------------------------|
|--------------------------|


Em                    Am            Em
Fue hermoso soñar la rosa toda perfume
Em                   Am                 Em
despiertos, pasión, amor viajando en las nubes
D                    C           Em
pero uno que de esa rosa nada veía
D                  C                  Em
clavó en vos su mirada, y en mi la espina.


Em                   Am              Em
De este pueblo fantasma no espero nada
Em                 Am                Em
ella se llevó consigo mi alma estafada
D                 C    Em
algo que nunca nació, no hay vida que lo supere
D                  C                Em
lo hermoso sólo se da en lo que se muere.


 Em                         Am
|---------------------|-------------------|
|------------13-(12)--|-----------15-(13)-|
|----11-12------------|----11-12----------|
|-14------------------|-14----------------|
|---------------------|-------------------|
|---------------------|-------------------|

     Am               G        D
|----------------------(15)-(15)-14-14--12-12-10-10--|
|-10-10-10-12-13-------------------------------------|
|----------------------------------------------------|
|----------------------------------------------------|
|----------------------------------------------------|
|----------------------------------------------------|


   C               Em
|--------------------------|
|-/13------15-13-12/13-12--|
|-/12------14-12-----------|
|--------------------------|
|--------------------------|
|--------------------------|


Em       Am     G D      C      Em
LA LA LA LA LA LA LA LA LA LA LA LA LA...

FIN.
Suggest correction
Give kudos to tab author, rate the tab!
1 2 3 4 5
comments
print report bad tab
guest
You may want to rate the tab now too:
select rating
Wanna post a correction for this tab? Suggest correction