Oops, an error
Loading. Please wait.

Ya Se Ha Muerto Mi Abuelo Tab

617 views 9 this week
no commentswrite comment
1 2 3 4 5
3 more votes to show rating
add to favorites
launch autoscroll
font size
0
reset
how to read this tab
guitar tuner
×
Best way to learn
"Ya Se Ha Muerto Mi Abuelo"
Autoscroll
slow
fast
+/-
esc
set tempo
stop
Cover de Juaneco y su combo por la sarita.

Intro:


e|-5-5---5-5---5-5----------
B|-6-6---6-6---6-6----------
G|-7-7---7-7---7-7----------
D|-7-7---7-7---7-7----------
A|-5-5---5-5---5-5----------
E|-5-5---5-5---5-5----------

e|-----------------------------
B|-----------------------------
G|------------0-2-2-2-2-0s2s0--   (x4)
D|--0-0-0-0-2------------------
A|-----------------------------
E|-----------------------------


Riff Principal:

e|--1--1--5--0--3---|     |---3---3-------0-3-0---
B|-3--3-----------3-|     |-1---1---1-1-1-------3-
G|------------------|(x3) |-----------------------(x4)
D|------------------|     |-----------------------
A|------------------|     |-----------------------
E|------------------|     |-----------------------

Guitarra acompañamiento:

e|--5-5-5-5--------|      |-3-3--5-5-----|
B|--5-5-6-6--------|      |-5-5--6-6-----|
G|--6-6-7-7--------|(x3)  |-5-5--7-7-----| (x4)
D|--7-7-7-7--------|      |-5-5--7-7-----|
A|--7-7-5-5--------|      |-3-3--5-5-----|
E|--5-5-5-5--------|      |-3-3--5-5-----|

acorde final intro:

e|-7-|
B|-6-|
G|-5-|
D|-7-|
A|-5-|
E|-5-|


Dm               A
Ya se ha muerto mi abuelo ayayay
Dm               A
Ya se ha muerto mi abuelo ayayay
Dm          A
Tomando trago
Dm          A
Tomando masato

Dm
olelolayyy olelolayy
Dm
olelolayyy olelolayy

C        Dm
olelolaa lelolaa
C        Dm
olelolaa lelolaa

INTRO.

Dm               A
Ya se ha muerto mi abuelo ayayay
Dm               A
Ya se ha muerto mi abuelo ayayay
Dm          A
Tomando trago
Dm          A
Tomando masato

Dm
olelolayyy olelolayy
Dm
olelolayyy olelolayy

C        Dm
olelolaa lelolaa
C        Dm
olelolaa lelolaa


PUENTE:

e|----------------------------------------------------|
B|----------------------------------------------------|
G|------------------------------------2-----------2---|
D|-----------4-----------4--0-0-0-0-3---0-0-0-0-3-----| X2
A|-0-0-0-0-2---0-0-0-0-2------------------------------|
E|----------------------------------------------------|


e|--5-5-5-5--------|
B|--5-5-6-6--------|
G|--6-6-7-7--------|
D|--7-7-7-7--------|
A|--7-7-5-5--------|
E|--5-5-5-5--------|


practicamente esa es toda la cancion
disfrutenla

pero con moderacion ;)


-PollEX-
Suggest correction
Give kudos to tab author, rate the tab!
1 2 3 4 5
comments
print report bad tab
guest
You may want to rate the tab now too:
select rating
Wanna post a correction for this tab? Suggest correction