Oops, an error
Loading. Please wait.

Asesino Bass Tab

27 views 1 this week
no commentswrite comment
1 2 3 4 5
3 more votes to show rating
add to favorites
launch autoscroll
font size
0
reset
guitar tuner
Autoscroll
slow
fast
+/-
esc
set tempo
stop
Help us to improve Ultimate-Guitar.com Take our survey!
×
Intro y verso
'y si el dia te ha ido mal...'
g--------------------------------|
d--------------------------------|
a--------------------------------|
e--5--5h7--7h5--5h7--7h5--5h777--|

Coro
'si algo se rompio...'
g------------------------------------------------------------------------|
d------------------------------------------------------------------------|
a------------------4-4-4-4-4-4-4/2--0-0-0-0-0-0-0-0----------------------|
e-0-0-0-0-0-0-0-0------------------------------------0-5h6h7-0-0-0-0-0-0-|

Puente
'no quiero ser,ya no quiero ser...'
g-------------------------------|
d-------------------------------|
a--2h44444--2h44444-------------|
e--------------------2--2-2-2-5~|

escuchen el cd para saber como entrar en el verso
Suggest correction
Give kudos to tab author, rate the tab!
1 2 3 4 5
comments
print report bad tab
guest
You may want to rate the tab now too:
select rating
Wanna post a correction for this tab? Suggest correction