Oops, an error
Loading. Please wait.

Damela Bass

13 views 1 this week
no commentswrite comment
1 2 3 4 5
3 more votes to show rating
add to favorites
launch autoscroll
font size
0
reset
guitar tuner
×
Best way to learn
"Damela"
Autoscroll
slow
fast
+/-
esc
set tempo
stop
el intro es facil pero tienes que cojer bein el tiempo

G-----------------------
D-----------------------
A--3-3------------------
E------0-0----1-1-----1-1

el coro es asi

G----------------------------------------------------
D-----------5----------------------------------------
A--33333333---3-----------2-----------3-----------3--
E-----------------00000000-0--11111111-1--11111111-1

el verso va algo asi

G----------------------------------------------------------------
D----------------------------------------------------------------
A--33333h5p3h55-3-------2-4-2-4----------------------------
E------------------00000--------00--11111 3h5-3-3h5-3-0-3-0

el bridge es alrevez del coro

G---------------------------------------
D---------------------------------------
A----------------------33333333333333---
E-11111111---0000000-------------------
Suggest correction
Give kudos to tab author, rate the tab!
1 2 3 4 5
comments
print report bad tab
guest
You may want to rate the tab now too:
select rating
Wanna post a correction for this tab? Suggest correction