Oops, an error
Loading. Please wait.

Rosas Y Espinas Tab

46 views 1 this week
no commentswrite comment
1 2 3 4 5
3 more votes to show rating
add to favorites
launch autoscroll
font size
0
reset
how to read this tab
guitar tuner
Autoscroll
slow
fast
+/-
esc
set tempo
stop
Help us to improve Ultimate-Guitar.com Take our survey!
×
Hola, soy Alejandro, y decidí hacer una tablatura de esta canción
ya que me gusta mucho y vi que no había ninguna hecha.
Cabe aclarar unos puntos, como el ?Do Re Sol?, el cual se toca
antes de que se cante cada verso, y MIENTRAS se canta el verso
se toca el ?arpegio? o meramente el acorde desplegado que tab-iée
debajo de esto. También, cada estrofa (excepto el coro) tiene
5 versos, arriba de cada una escribí el patrón de acorde que se
toca ANTES del verso y el arpeggio que se toca DURANTE el verso.
En el coro, cuando se toca el acorde correspondiente, primero se
toca el BAJO del acorde y luego el acorde completo. (Ej. Sol, toca
las 3 cuerdas gruesas primero y  luego el acorde entero. Igual con
los demás.) También, durante el coro, como guitarra 2, se tocan los
arpeggios que tab-iée, si tienen un 2do guitarrista pues lo pueden
tocar también.

Intro:

DO RE SOL                  (RE)            (DO)
           E|----3h5p3----|--2----2h3p2---|--0-----------|
           B|--3-------3--|--3--3-------3-|--1-----------|
           G|-------------|--2------------|--0-----------|->Arp#1
           D|-------------|---------------|--2-----------|
           A|-------------|---------------|--3-----------|
           e|-------------|---------------|--x-----------|
DO RE SOL                  (RE)            (DO)
           E|----3h5p3----|--2----3h5p3-2-|--0-----------|
           B|--3-------3--|--3--3---------|--1-----------|
           G|-------------|--2------------|--0-----------|->Arp#2
           D|-------------|---------------|--2-----------|
           A|-------------|---------------|--3-----------|
           e|-------------|---------------|--x-----------|

                     Arp#1
DO RE SOL /¯¯¯¯¯¯¯¯¯¯¯¯¯¯¯¯¯¯¯¯¯¯¯¯
          Hoy me pierdo en el jardín
                     Arp#2
DO RE SOL /¯¯¯¯¯¯¯¯¯¯¯¯¯¯¯¯¯¯¯¯¯¯¯¯
          El cuento que no tiene fin
                           Arp#1
SOL DO SOL RE /¯¯¯¯¯¯¯¯¯¯¯¯¯¯¯¯¯¯¯¯¯¯¯¯¯¯¯¯¯¯
              Mientras unos vienen y otros van
                   Arp#1
DO RE SOL /¯¯¯¯¯¯¯¯¯¯¯¯¯¯¯¯¯¯¯¯
          El mundo para de girar
SOL RE DO
         Dentro de ti...

Coro:

SOL    RE
   Rosas y espinas,
DO            LA
  La historia de mi vida
SOL    RE
   Rosas y espinas,
DO         LA
  Amor que contamina
SOL    RE
   Rosas y espinas,
DO       LA
  Veneno y medicina
SOL     RE       DO
   Rosas  hermosas...

El resto de la canción es igual, disfrútenla!
Suggest correction
Give kudos to tab author, rate the tab!
1 2 3 4 5
comments
print report bad tab
guest
You may want to rate the tab now too:
select rating
Wanna post a correction for this tab? Suggest correction