Oops, an error
Loading. Please wait.

Solo Quiero Darte Amor Tab

115 views 1 this week
no commentswrite comment
1 2 3 4 5
3 more votes to show rating
add to favorites
launch autoscroll
font size
0
reset
how to read this tab
guitar tuner
×
Best way to learn
"Solo Quiero Darte Amor"
Autoscroll
slow
fast
+/-
esc
set tempo
stop
Intro: D# C A# G#
despues d el ultimo Sol# hagan un G, G#, G, G# G con el dedo
indice en la 6ta cuerda

El Lead Guitar toca esto:

E---------------
B-8b9-8-6---6-8-
G---------8-----
D---------------
A---------------
E---------------

E---------------
B-8b9-8-6---6---
G---------8---8-
D---------------
A---------------
E---------------

D#             C      A#      G#
 Estoy loco y no quiero curarme.
D#             C      A#      G#
 Estoy loco y no siento el dolor.
D#             C      A#      G#
 No quiero ya historias fugaces,
D#             C      A#      G#
 no quiero callar el rumor.

Coro:

G#    C    A#           G#
 Y yo solo quiero darte amor,
 C    A#           G#
 solo quiero darte amor,
 C     D           D#
 enredarte en mi ilusion,

Intro:

(D# C A# G#)

D#             C      A#      G#
 No importa el futuro o enlaces
D#             C      A#      G#
 Vendados los ojos por ti
D#             C      A#      G#
 El cuarto esta lleno de gases
D#             C      A#      G#
 Respiro y me lleno de ti


Coro
G#    C    A#           G#
 Y yo solo quiero darte amor,
 C    A#           G#
 solo quiero darte amor,
 C     A#           G#
 enredarte en mi ilusion,
 C     A#           G#
 solo quiero darte amor,
 C     D            D#
 enredarte en mi illusion.


Puente: G# C G# C

G#
Este mal me denuncia,
C
no conte con tu astucia,
G#                         C  D   RE#
queria un poco y he tomado de maaaaaaas....

Solo: igual que los versos


e-------------------------------------------------
B-------11-------11-------11------11--------------
G-10h12----10h12----10h12---10h12---10h12-10------
D-------------------------------------------------
A-------------------------------------------------
E-------------------------------------------------

e---------------------------------------------------
B---------------------------------------------------
G-----------------13-------10-12-10-------10-12-12-
D--------10-12-13-13--12s13---------12s13----------
A--10-12--------------------------------------------
E---------------------------------------------------
e----------------9s11-11-11-11-13-11-13-13h15-18-------
B-------------11--------------------------------18br-16
G-------10-12------------------------------------------
D-12s13------------------------------------------------
A------------------------------------------------------
E------------------------------------------------------
Suggest correction
Give kudos to tab author, rate the tab!
1 2 3 4 5
comments
print report bad tab
guest
You may want to rate the tab now too:
select rating
Wanna post a correction for this tab? Suggest correction