Oops, an error
Loading. Please wait.

Tunel De Amor Tab

20 views 1 this week
no commentswrite comment
1 2 3 4 5
3 more votes to show rating
add to favorites
launch autoscroll
font size
0
reset
how to read this tab
guitar tuner
Autoscroll
slow
fast
+/-
esc
set tempo
stop
Help us to improve Ultimate-Guitar.com Take our survey!
×
Alberto
segunda guitarra
afinación:bemol
distorción

-----------------------------------------------------
-----------------------------------------------------
-----------------------------------------------------
--------------------------------------9--7--5-7-5----
-5-7-5-7----2----5-7-5-7----2--5-7-5--7--5--3-5-3----
---------xx-0------------xx-0------------------------

-----------------------------------------------------
-----------------------------------------------------
-----------------------------------------------------
-------------------5----------------9--7--5-7-5------
-5-7-5-7----2--5-7---7----2--5-7-5--7--5--3-5-3------
---------xx-0----------xx-0--------------------------


----------------------------------
----------------------------------
----------------------------------
---2------5---------2--------5----
--2------3---------2--------3-----
-0----------------0---------------
Hoy la televisió llanto y dolor


coro

----------------------------------------------------
----------------------------------------------------
----------------------------------------------------
-4---4---4---4---4---4----5---5---5---5---5---5-----
-2xx-2xx-2xx-2xx-2xx-2xx--3xx-3xx-3xx-3xx-3xx-3xx---
----------------------------------------------------
Soy un tunel de amor
Suggest correction
Give kudos to tab author, rate the tab!
1 2 3 4 5
comments
print report bad tab
guest
You may want to rate the tab now too:
select rating
Wanna post a correction for this tab? Suggest correction