Oops, an error
Loading. Please wait.
17 views 1 this week
no commentswrite comment
1 2 3 4 5
3 more votes to show rating
add to favorites
launch autoscroll
font size
0
reset
how to read this tab
guitar tuner
Autoscroll
slow
fast
+/-
esc
set tempo
stop
Help us to improve Ultimate-Guitar.com Take our survey!
×
Un Saludo desde Maracaibo- Venezuela envió esta
canción que me parece muy buena, un ritmo
de lo que algunos llaman Â?NeofolclorÂ?...
Me extraña que no haya otra trascripción
de este buen grupo que Inicio el movimiento
Rock en Venezuela por los años 80Â?
(Aunque esta canción es nuevaÂ?)

Espero la disfruten, creo q debe tener
pocos erroresÂ?


Joroporoll


Intro: E (mantiene el acorde con una
pequeña variación el dedo
4 pisa la cuerda 2 el traste 2)

Luego a los 0:15

B-8-----------8---------8----------------------
G---9-7---------9-7-------9-7---------7---7----
D------9-7-9--------9-7-------9-7-97h9-7h9--7--

B-8-----------8---------8----------------------
G---9-7---------9-7-------9-7----------9----9----
D------9-7-9--------9-7-------9-7-99h11-9h11--9--


E
Sigo mi camino
Voy a mi manera
Busco mi destino
Aquí en Venezuela
        A
Estoy así
                  E
Pensando en Tenessi
            B        A
Porque mi amor viajero
                     E
Esta muy cerca de allí

Se repite el introÂ?


E
El mundo es uno solo
No lo quiero dividir
Estoy en Venezuela
Pensando en Tenessi
            A
En Tenessi...
                 E
En Memphis Tenessi

RIFF (se repite de aquí en adelante varias veces)
E--------------12-------12-------12--
B--------12h14----12h14----12h14----- (X 2)
           B                A
Porque mi amor viajero
                      E
Esta muy cerca de allí


     B                A                  E
Yo le digo amor viajero, regresa por aquí
     B                A                  E
Y si mi amor regresa, seguro estaré feliz
     B                A                  E
O seguro voy al llano y toco Joropo allí (Riff)
     B                A                  E
O me paso hasta Barinas y toco Joropo allí
     B                A                  E
Me regreso hasta el Vigía y toco Joropo allí (Riff)
     B                A                  E
O me vengo hasta Valencia y toco Joropo allí
     B                A                  E
Y me paso por Bejuma, y toco Joropo allí (Riff)
     B                A                  E
Me regreso hasta Guarenas y toco Joropo allí
     B                A                  E
O me regreso hasta Coro y toco Joropo allí (Riff)
     B                A                  E
Y me quedo aquí en Caracas, y toco Joropo ASÍÂ?.

(Viene la parte más interesante de la canción...)
(Coloco a bajo la parte del bajo)


(Coloco los acordes varias veces para q sepan
el número de veces q deben rasguearlos,
de todas formas al oír la canción se darán cuenta...)

EE AA BB BB (x 2)

(Lo que vienes es Con ritmo como de Joropo)

E     A     B (el B A 2 tiempos)
(se hace esta parte 4 veces)

EEEE  AAAA   EEEE         BbBB

EEEE  AAAA   EEEE         BbBB E B E


E--------------12-------12-------12--7---0
B--------12h14----12h14----12h14-----8---0
G------------------------------------9---1
D----------------------------------------2
A----------------------------------------2
E----------------------------------------0


Bajo:

Después de la parte que dice y me quedo
aquí en caracas y toco Joropo asíÂ? el bajo
hace lo siguiente: (lo pueden hacer con
otra guitarra para acompañar el rasgueo)


A------2222------2222----------222-2-------
E-0055------0055-------000-555-------5-4--- (X 4)


A-------------222------------222---2-------
E-000-555-000-----000-555-000----0---0-----


Que viva la buena música en Venezuela y
Â?En la lucha por una Venezuela sin reguetonÂ?
Suggest correction
Give kudos to tab author, rate the tab!
1 2 3 4 5
comments
print report bad tab
guest
You may want to rate the tab now too:
select rating
Wanna post a correction for this tab? Suggest correction