Oops, an error
Loading. Please wait.

Downn Dirty Tab

version 1
version 1

Whole song

Interactive

7,117 views 1 this week
8 commentsread comments
1 2 3 4 5
worth learning
x 10
add to favorites
launch autoscroll
font size
0
reset
how to read this tab
guitar tuner
Autoscroll
slow
fast
+/-
esc
set tempo
stop
Help us to improve Ultimate-Guitar.com Take our survey!
×
Contributor
                            Down And Dirty
                                  by
                            LA Slum Lords

If there are any comments or questions mail me at johann-felix@live.com

This is the whole song except of the solo which I just can't figure out. You might try 
out and listen to the song and try to tab the solo but anyway here is the song:

Intro
|----------------------|
|----------------------|
|----------------------|
|-----2-(2)------5---7-| (x4)
|-----0-(0)---00-3---5-|
|-0-3------------------|

Hook
|------------------------------------------------------|
|------------------------------------------------------|
|------------------------------------------------------|
|-----2-------------------5-7--2-----------------------|
|-----0-0-0-3-0---0-0-0---3-5--0-0-0-3-0---0-0-0---5-5-|
|-0-3-----------3-------3----------------0-------0-3-3-|

|--------------------------------------------------|
|--------------------------------------------------|
|--------------------------------------------------|
|-2-------------------5-7--2-----------------------|
|-0-0-0-3-0---0-0-0---3-5--0-0-0-3-0---0-0-0---5-5-|
|-----------3-------3----------------3-------0-3-3-|

Verse 1
|--------------------------------------------------|
|--------------------------------------------------|
|--------------------------------------------------|
|-2-------------------5-7--2-----------------------| (x2)
|-0-0-0-3-0---0-0-0---3-5--0-0-0-3-0---0-0-0---5-5-|
|-----------3-------3----------------3-------0-3-3-|

|------------------| |--------------------------------------------------|
|------------------| |--------------------------------------------------|
|------------------| |--------------------------------------------------|
|-2-(2)-----22|-2|-| |-2-------------------5-7--2-----------------------|
|-0-(0)-----00|-0|-| |-0-0-0-3-0---0-0-0---3-5--0-0-0-3-0---0-0-0---5-5-|
|------------------| |-----------3-------3----------------3-------0-3-3-|

|------------------| |--------------------------------------------------|
|------------------| |--------------------------------------------------|
|------------------| |--------------------------------------------------|
|-2-(2)-----22|-2|-| |-2-------------------5-7--2-----------------------|(x2)
|-0-(0)-----00|-0|-| |-0-0-0-3-0---0-0-0---3-5--0-0-0-3-0---0-0-0---5-5-|
|------------------| |-----------3-------3----------------3-------0-3-3-|

Chorus 1
|---------------------------------------------------------------------------|
|---------------------------------------------------------------------------|
|---------------------------------------------------------------------------|
|-7-777-77-77-77777-777-77-77-7--5-7-777-77-77-777-777-7-79-99-9999-99-9999-|
|-5-555-55-55-55555-555-55-55-5--3-5-555-55-55-555-555-5-57-77-7777-77-7777-|
|---------------------------------------------------------------------------|

Verse 2
|--------------------------------------------------|
|--------------------------------------------------|
|--------------------------------------------------|
|-2-------------------5-7--2-----------------------| (x2)
|-0-0-0-3-0---0-0-0---3-5--0-0-0-3-0---0-0-0---5-5-|
|-----------3-------3----------------3-------0-3-3-|

|------------------| |--------------------------------------------------|
|------------------| |--------------------------------------------------|
|------------------| |--------------------------------------------------|
|-2-(2)-----22|-2|-| |-2-------------------5-7--2-----------------------|
|-0-(0)-----00|-0|-| |-0-0-0-3-0---0-0-0---3-5--0-0-0-3-0---0-0-0---5-5-|
|------------------| |-----------3-------3----------------3-------0-3-3-|

|------------------| |--------------------------------------------------|
|------------------| |--------------------------------------------------|
|------------------| |--------------------------------------------------|
|-2-(2)-----22|-2|-| |-2-------------------5-7--2-----------------------|(x2)
|-0-(0)-----00|-0|-| |-0-0-0-3-0---0-0-0---3-5--0-0-0-3-0---0-0-0---5-5-|
|------------------| |-----------3-------3----------------3-------0-3-3-|

Chorus 2
|-----------------------------------------------------------------------|
|-----------------------------------------------------------------------|
|-----------------------------------------------------------------------|
|-7-7-7777-77-77777-7-7-77-77-77-5-7-777-77-77-7777777-777-9-99-9999-99-|
|-5-5-5555-55-55555-5-5-55-55-55-3-5-555-55-55-5555555-555-7-77-7777-77-|
|-----------------------------------------------------------------------|

|----------------------|
|----------------------|
|----------------------|
|-9999-99-999999999999-|
|-7777-77-777777777777-|
|----------------------|

Solo 1
|------------------------------------------------|
|------------------------------------------------|
|-----------------2-(2)--------------------------|
|-2-(2)-----5-(5)-0-(0)---2-(2)-----5-(5)--------|
|-0-(0)--00-3-(3)---------0-(0)--00-3-(3)-5-(5)--|
|----------------------33-----------------3-(3)--|

And here comes a little solo part and riff before the main solo. I can't tab the solo 
and main solo but here is the riff and the parts after the main solo:

Riff
|------------------------------------------------------------------------|
|------------------------------------------------------------------------|
|------------------------------------------2-(2)-------------------------|
|-2-(2)-----5-(5)----------2-(2)-----5-(5)-0-(0)---2-(2)-----5-(5)-------|
|-0-(0)--00-3-(3)-5-(5)----0-(0)--00-3-(3)---------0-(0)--00-3-(3)-5-(5)-|
|-----------------3-(3)-33----------------------33-----------------3-(3)-|

And here comes the main solo and then after that comes

Hook 2
|------------------------------------------------------|
|------------------------------------------------------|
|------------------------------------------------------|
|-----2-------------------5-7--2-----------------------|
|-----0-0-0-3-0---0-0-0---3-5--0-0-0-3-0---0-0-0---5-5-|
|-0-3-----------3-------3----------------0-------0-3-3-|

|--------------------------------------------------|
|--------------------------------------------------|
|--------------------------------------------------|
|-2-------------------5-7--2-----------------------|
|-0-0-0-3-0---0-0-0---3-5--0-0-0-3-0---0-0-0---5-5-|
|-----------3-------3----------------3-------0-3-3-|

|--------------------------------------------------|
|--------------------------------------------------|
|--------------------------------------------------|
|-2-------------------5-7--2-----------------------| (x2)
|-0-0-0-3-0---0-0-0---3-5--0-0-0-3-0---0-0-0---5-5-|
|-----------3-------3----------------3-------0-3-3-|

Verse 3
|------------------| |--------------------------------------------------|
|------------------| |--------------------------------------------------|
|------------------| |--------------------------------------------------|
|-2-(2)-----22|-2|-|-| |-2-------------------5-7--2-----------------------|
|-0-(0)-----00|-0|-|-| |-0-0-0-3-0---0-0-0---3-5--0-0-0-3-0---0-0-0---5-5-|
|------------------| |-----------3-------3----------------3-------0-3-3-|

|------------------| |--------------------------------------------------|
|------------------| |--------------------------------------------------|
|------------------| |--------------------------------------------------|
|-2-(2)-----22|-2|-| |-2-------------------5-7--2-----------------------|(x2)
|-0-(0)-----00|-0|-| |-0-0-0-3-0---0-0-0---3-5--0-0-0-3-0---0-0-0---5-5-|
|------------------| |-----------3-------3----------------3-------0-3-3-|

|--------------------------------------------------|
|--------------------------------------------------|
|--------------------------------------------------|
|-2-------------------5-7--2-----------------------| (x2)
|-0-0-0-3-0---0-0-0---3-5--0-0-0-3-0---0-0-0---5-5-|
|-----------3-------3----------------3-------0-3-3-|

Chorus 3
|---------------------------------------------------------------------------|
|---------------------------------------------------------------------------|
|---------------------------------------------------------------------------|
|-7-7-7777-77-77777-7-7-77-77-77-5-7-7-7777-77-77777-7-7-77-77-77-5-7-7-7777|
|-5-5-5555-55-55555-5-5-55-55-55-3-5-5-5555-55-55555-5-5-55-55-55-3-5-5-5555|
|---------------------------------------------------------------------------|

|----------------------------------------------------|
|----------------------------------------------------|
|----------------------------------------------------|
|-77-77777-7-7-77-77-77-9999-99-9999-99-999999999999-|
|-55-55555-5-5-55-55-55-7777-77-7777-77-777777777777-|
|----------------------------------------------------|

And then a little solo before the ending which is like this

|------------|
|------------|
|------------|
|-----2-(2)--|
|-----0-(0)--|
|-0-3--------|



( )= let ring
| = mute string

Enjoy!
comments
print report bad tab
8 comments total. Showing first comments.
+2 reply
jóhannfelix 10 wrote on March 18 2008, 12:01 pm

I forgot to put down:
( )= let ring
and in that part

|-----------------|
|-----------------|
|-----------------|
|-2-(2)------22-2-|
|-0-(0)------00-0-|
|-----------------|

it should be

|-------------------|
|-------------------|
|-------------------|
|-2-(2)------22|-2|-|
|-0-(0)------00|-0|-|
|-------------------|

and | means mute string

+4 reply
kattarmatur 10 wrote on March 19 2008, 02:18 pm

Thats awesome dude 100% right except the solo that is missing :/ but I am sure someone will tab it :)

+3 reply
god of iceland 289 wrote on May 1 2008, 02:42 pm

flott hjá mér sjálfum

I want to post or [tab]
guest
You may want to rate the tab now too:
select rating
Please do not post tabs as comments. Select "correction" instead!