Oops, an error
Loading. Please wait.

Paloma Ajena Tab

311 views 9 this week
no commentswrite comment
1 2 3 4 5
3 more votes to show rating
add to favorites
×
Save as Personal and add changes to this tab that will be seen only by you. Learn more ›
×
You can save this tab as Personal to edit and correct it or add notes. All changes will be seen only by you. Learn more »
save as personal
new!
launch autoscroll
font size
0
reset
how to read this tab
guitar tuner
Autoscroll
slow
fast
+/-
esc
set tempo
stop
Aca les paso el Intro y parte del solo de esta cancion.
Esta primera parte es tocada dos veces

Los cambios son F - Dm - Amm Dm - Am

-------------8-8-/-------------10-10-/--13-12---------
-----8--10-------/------8--10--------/---------10-----
--9--------------/---9---------------/----------------
-----------------/-------------------/----------------
-----------------/-------------------/----------------
-----------------/-------------------/----------------


----10--12-13--12--10-----8-8--
-10-------------------10-------
-------------------------------
-------------------------------
-------------------------------
-------------------------------

**Luego sigue esta**

--------8--------/-----------------------------------
--8--10----10--8-/--8--10--8-------------------------
-----------------/------------10--7------------------
-----------------/-----------------------------------
-----------------/-----------------------------------
-----------------/-----------------------------------

***Desde aca se toca un poco mas rapido (que es tocado en teclado)***
---------------------/-------------/-----------/--------------------
---------------------/-------------/-----------/------------10-10---
----------9--10--12--/---9--10--12-/-9--10--12-/-9--10--12----------
---10--12------------/-------------/-----------/--------------------
---------------------/-------------/-----------/--------------------
---------------------/-------------/-----------/--------------------


--8-------------/---8---------------/--8--------------------
----10--8--10-10/-----10--8--10-10--/----10--8--10-10-------
----------------/-------------------/-----------------------
----------------/-------------------/-----------------------
----------------/-------------------/-----------------------
----------------/-------------------/-----------------------

--8-------------/---8---------------/
----10--8--10-10/-----10--8--10-10--/
----------------/-------------------/
----------------/-------------------/
----------------/-------------------/
----------------/-------------------/

F                     Dm-Am
Se apareció en mi ventana
     Dm            Am
La cogi con mucho amor
F                   Dm-Am
Alzaba vuelo era huraña
      Dm           Am
Me sentí su protector
C
Ya era mía
Ya era mía
Aquí va un solo de teclados:Cm-G#-Gm-A#

F                            Dm-Am
Todos los días cuidaba de ella
       Dm            Am
Propiciándole mi amor
F                          Dm-Am
Cuando de pronto una mañana
     Dm               Am
Alzando vuelo se marcho
C
Tenía dueño
Tenía dueño
         Dm
Ay que dolor

Otro solo de teclado  **********

         Dm          C                  F
Vas a sufrir vas a llorar cuando te acuerdes
                                             C              Dm
Paloma ajena te creí buena ahora te marchas y me dejas con mi pena
LO MISMO QUE LO DE ARRIVA.
Vas a sufrir vas a llorar cuando te acuerdes
Paloma ajena te creí buena ahora te marchas y me dejas con mi pena


Gracias!
Diciembre 04-2009
Suggest correction
Give kudos to tab author, rate the tab!
1 2 3 4 5
comments
print report bad tab
guest
Wanna post a correction for this tab? Suggest correction