Oops, an error
Loading. Please wait.

Quiero Tab

16 views 1 this week
no commentswrite comment
1 2 3 4 5
3 more votes to show rating
add to favorites
launch autoscroll
font size
0
reset
how to read this tab
guitar tuner
×
Best way to learn
"Quiero"
Autoscroll
slow
fast
+/-
esc
set tempo
stop
Primer Intro:

  SIm             MI              LA                 FA#m
e-----------------------------------------------------2------------|
B--3-3----3-3---3---3-3----3-3---3---2-2----2-2----2--2------------|
G--2-2----2-2---2---2-2----2-2---2---2-2----2-2----2--2------------|
D-----------------------------------------------------4------------|
A-----------------------------------------------------4------------|
E-----------------------------------------------------2------------|

Coninuacion del Intro:

                           DOM#           FA#m                         
e---5-5-5-5-4-4-4-4-2-2-2-2-1-1----1-1-2-4-2----5-5-5-5-4-4-4-4-|
B---------------------------------------------------------------|
G---------------------------------------------------------------|
D---------------------------------------------------------------|
A---------------------------------------------------------------|
E---------------------------------------------------------------|
  
          DOM#          FA#m                        SIm                 
e--2-2-2-2-1-1---1-1-2-4-2----9-9-9-9-7-7-7-7-9-9-10-10---------|
B---------------------------------------------------------------|
G---------------------------------------------------------------|
D---------------------------------------------------------------|
A---------------------------------------------------------------|
E---------------------------------------------------------------|
 
              FA#m                           DOM#             FA#m
e-7-7-7-7-7-7-9-9  --5-5-5-5-4-4-4-4-2-2-2-2-1-1-----7/9-7-5-4-2-|
B----------------------------------------------------------------|
G----------------------------------------------------------------|
D----------------------------------------------------------------|
A----------------------------------------------------------------|
E----------------------------------------------------------------|


Por KnUt
[superknud@
Suggest correction
Give kudos to tab author, rate the tab!
1 2 3 4 5
comments
print report bad tab
guest
You may want to rate the tab now too:
select rating
Wanna post a correction for this tab? Suggest correction