Oops, an error
Loading. Please wait.
19 views 1 this week
no commentswrite comment
1 2 3 4 5
3 more votes to show rating
add to favorites
launch autoscroll
font size
0
reset
transpose
0
reset
display chords
guitar tuner
×
Best way to learn
"Karolina"
Autoscroll
slow
fast
+/-
esc
set tempo
stop
Esta es una versión acústica ke le escuché a Rafo Raez en un
Trovadictos, bravaza, casi como la original.


     G*
E||-----||
B||--3--||
G||-----||
D||-----||
A||--2--||
E||-----||

Arpegio 1:
E||--------------------------||
B||--------------------------||
G||--------------------------||
D||--------------------0--2--||
A||-----------0--2--3--------||
E||--0--2--3-----------------||

Arpegio 2:
E||--------------------||
B||--------------------||
G||--------------------||
D||--------------------||
A||--3--2----0---------||
E||---------------3----||


A ritmo de huayno pero lento


Intro: C-G*-Am-arpegio 1
       C-G*-Am-arpegio 2

       C-G*-Am-arpegio 1
       C-G*-Am (dos veces)

Karolina!!!

C      G       Am
Sakemosle la lengua
C G       Am
A ah  A luna
C            G    Am
Mientras se muere de cólera
C          G       Am
por estar bajo su luz


(repetir intro)


Karolina!!!

C         G       Am
Y no se podrá ir antes
C G     Am
aunke kiera
C        G   Am
No la dejemos trankila
C         G    Am
durante toda la noche
C         G     Am
durante toda la noche
C         G     Am
durante toda la noche!!!!


(Acelerar el ritmo)

C-G*-Am (4 veces)

Karolina!!!


----------------------------
"lo más terrible se aprende en seguida
y lo hermoso nos cuesta la vida" (Silvio)
Suggest correction
Give kudos to tab author, rate the tab!
1 2 3 4 5
comments
print report bad tab
guest
You may want to rate the tab now too:
select rating
Wanna post a correction for this tab? Suggest correction