Oops, an error
Loading. Please wait.

Amor De Mis Amores Bass

379 views 3 this week
no commentswrite comment
1 2 3 4 5
3 more votes to show rating
add to favorites
×
Save as Personal and add changes to this tab that will be seen only by you. Learn more ›
×
You can save this tab as Personal to edit and correct it or add notes. All changes will be seen only by you. Learn more »
save as personal
new!
launch autoscroll
font size
0
reset
guitar tuner
Autoscroll
slow
fast
+/-
esc
set tempo
stop
INTRO
   X3                 X2      X2     X2
G|-------|-------|-------|-------|-------|
D|-------|-------|-------|-------|---1-4-|
A|-----2-|-------|---3-7-|-----2-|-2-----|
E|-0-3---|-0-0-0-|-5-----|-0-3---|-------|

                    X2      X2     X2
G|-------|-------|-------|-------|-------|
D|-------|-------|-------|-------|---1-4-|
A|-----2-|-------|---3-7-|-----2-|-2-----|
E|-0-3---|-0-0-0-|-5-----|-0-3---|-------|
NO TE ASOMBRES SI TE DIGO
    X4     X2             X2          X2    X2     X2       X2
G|-------|-------|-------|-------|-------|------|-------|-------|
D|-------|-------|---4-7-|-------|---1-4-|------|---2-5-|---1-4-|
A|-----2-|---3-7-|-5-----|---2-5-|-2-----|----2-|-3-----|-2-----|
E|-0-3---|-5-----|-------|-3-----|-------|-0-3--|-------|-------|
Y PENSAR QUE TE ADORABA
     X2        X2   X2        X2     X2     X2
G|-------|-------|-------|-------|-------|------|-------|-------|
D|-------|-------|---4-7-|-------|---1-4-|------|---2-5-|---1-4-|
A|-----2-|---3-7-|-5-----|---2-5-|-2-----|----2-|-3-----|-2-----|
E|-0-3---|-5-----|-------|-3-----|-------|-0-3--|-------|-------|

G|-------------|
D|-------------|
A|-------------|
E|-0-0-0-0-0-0-|
AMOR DE MIS AMORES
   X2         X2         X2      X2      X2      X2
G|-------|-------|   |-------|------|-------|-------|
D|---4-7-|-------|X4 |---1-4-|------|---2-5-|---1-4-|
A|-5-----|---2-5-|   |-2-----|----2-|-3-----|-2-----|
E|-------|-3-----|   |-------|-0-3--|-------|-------|

AMOR DE MIS AMORES
   X2         X2         X2      X2
G|-------|-------|   |-------|------|-------|-------|-------|-------|
D|---4-7-|-------|X4 |---1-4-|------|---2-5-|---1-4-|-------|-------|
A|-5-----|---2-5-|   |-2-----|----2-|-3-----|-2-----|-----2-|-------|
E|-------|-3-----|   |-------|-0-3--|-------|-------|-0-3---|-0-0-0-|

INTRO
            X2        X2     X2
G|-------|-------|-------|-------|
D|-------|-------|-------|---1-4-|
A|-------|---3-7-|-----2-|-2-----|
E|-0-0-0-|-5-----|-0-3---|-------|

                    X2      X2     X2
G|-------|-------|-------|-------|-------|
D|-------|-------|-------|-------|---1-4-|
A|-----2-|-------|---3-7-|-----2-|-2-----|
E|-0-3---|-0-0-0-|-5-----|-0-3---|-------|

NO TE ASOMBRES SI TE DIGO
    X4     X2             X2          X2    X2     X2       X2
G|-------|-------|-------|-------|-------|------|-------|-------|
D|-------|-------|---4-7-|-------|---1-4-|------|---2-5-|---1-4-|
A|-----2-|---3-7-|-5-----|---2-5-|-2-----|----2-|-3-----|-2-----|
E|-0-3---|-5-----|-------|-3-----|-------|-0-3--|-------|-------|
Y PENSAR QUE TE ADORABA
     X2        X2   X2        X2     X2     X2
G|-------|-------|-------|-------|-------|------|-------|-------|
D|-------|-------|---4-7-|-------|---1-4-|------|---2-5-|---1-4-|
A|-----2-|---3-7-|-5-----|---2-5-|-2-----|----2-|-3-----|-2-----|
E|-0-3---|-5-----|-------|-3-----|-------|-0-3--|-------|-------|

G|-------------|
D|-------------|
A|-------------|
E|-0-0-0-0-0-0-|
AMOR DE MIS AMORES
   X2         X2         X2      X2      X2      X2
G|-------|-------|   |-------|------|-------|-------|
D|---4-7-|-------|X4 |---1-4-|------|---2-5-|---1-4-|
A|-5-----|---2-5-|   |-2-----|----2-|-3-----|-2-----|
E|-------|-3-----|   |-------|-0-3--|-------|-------|

AMOR DE MIS AMORES
   X2         X2         X2      X2
G|-------|-------|   |-------|------|-------|-------|-------|-------|
D|---4-7-|-------|X4 |---1-4-|------|---2-5-|---1-4-|-------|-------|
A|-5-----|---2-5-|   |-2-----|----2-|-3-----|-2-----|-----2-|-------|
E|-------|-3-----|   |-------|-0-3--|-------|-------|-0-3---|-0-0-0-|

   X2        X2     X2
G|-------|-------|-------|-------|
D|-------|-------|-------|---1-4-|
A|-------|---3-7-|-----2-|-2-----|
E|-0-0-0-|-5-----|-0-3---|-------|

                    X2      X2     X2
G|-------|-------|-------|-------|-------|
D|-------|-------|-------|-------|---1-4-|
A|-----2-|-------|---3-7-|-----2-|-2-----|
E|-0-3---|-0-0-0-|-5-----|-0-3---|-------|

AMOR DE MIS AMORES
   X2         X2         X2      X2      X2      X2
G|-------|-------|   |-------|------|-------|-------|
D|---4-7-|-------|X4 |---1-4-|------|---2-5-|---1-4-|
A|-5-----|---2-5-|   |-2-----|----2-|-3-----|-2-----|
E|-------|-3-----|   |-------|-0-3--|-------|-------|

AMOR DE MIS AMORES
   X2         X2         X2      X2
G|-------|-------|   |-------|------|-------|-------|-------|-------|
D|---4-7-|-------|X4 |---1-4-|------|---2-5-|---1-4-|-------|-------|
A|-5-----|---2-5-|   |-2-----|----2-|-3-----|-2-----|-----2-|-------|
E|-------|-3-----|   |-------|-0-3--|-------|-------|-0-3---|-0-0-0-|

 X2        X2     X2
G|-------|-------|-------|-------|
D|-------|-------|-------|---1-4-|
A|-------|---3-7-|-----2-|-2-----|
E|-0-0-0-|-5-----|-0-3---|-------|

                    X2      X2     X2
G|-------|-------|-------|-------|-------|
D|-------|-------|-------|-------|---1-4-|
A|-----2-|-------|---3-7-|-----2-|-2-----|
E|-0-3---|-0-0-0-|-5-----|-0-3---|-------|

ESO ES TODO SI TENGO ERRORES
A MI CORREO
ATT.D.F.C.J
Suggest correction
Give kudos to tab author, rate the tab!
1 2 3 4 5
comments
print report bad tab
guest
Wanna post a correction for this tab? Suggest correction