Oops, an error
Loading. Please wait.

Capullo Y Sorullo Bass Tab

132 views 1 this week
no commentswrite comment
1 2 3 4 5
3 more votes to show rating
add to favorites
launch autoscroll
font size
0
reset
guitar tuner
Autoscroll
slow
fast
+/-
esc
set tempo
stop
Help us to improve Ultimate-Guitar.com Take our survey!
×
INTRO
    X2       X2
G|-------|-------|
D|---2-5-|-------|   X2
A|-3-----|---2-5-|
E|-------|-3-----|
    X3              X2
G|-------|-------|-------|-------|------|
D|---2-5-|-------|---2-5-|-------|---4-7|
A|-3-----|---2-5-|-3-----|---0-3-|-5----|
E|-------|-3-----|-------|-1-----|------|
             X2
E|-------|-------|
A|-------|---2-5-|  X2
D|---2-5-|-3-----|
G|-3-----|-------|
HABIA UNA VEZ EN MI PUEBLO
                     X3              X3              X3
G|-------|-------|-------|-------|-------|-------|-------|-------|------
D|---2-5-|-------|---2-5-|-------|-------|-------|-------|-------|------
A|-3-----|---2-5-|-3-----|---0-3-|---2-5-|---0-3-|---2-5-|---0-3-|-3-3-3
E|-------|-3-----|-------|-1-----|-3-----|-1-----|-3-----|-1-----|------

DEL MATRIMONIO NACIERON
 X3              X3              X3
G|-------|-------|-------|-------|-------|-------|-------|-------|------
D|---2-5-|-------|---2-5-|-------|-------|-------|-------|-------|------
A|-3-----|---2-5-|-3-----|---0-3-|---2-5-|---0-3-|---2-5-|---0-3-|-3-3-3
E|-------|-3-----|-------|-1-----|-3-----|-1-----|-3-----|-1-----|------
EL MARIDO SOPORTO POR MUCHOS
                     X3             X3               X3
G|-------|-------|-------|-------|-------|--------|-------|-------|-----
D|-------|---2-5-|-------|---4-7-|-------|--------|-------|-------|-----
A|---0-3-|-3-----|---0-3-|-5-----|---2-5-|---0-3--|---2-5-|---0-3-|-3-3-3
E|-1-----|-------|-1-----|-------|-3-----|-1------|-3-----|-1-----|-----
OYE CAPULLO A TODOS
     X8
G|-------|  |-------|-------|
D|---2-5-|  |-------|-------|  X4
A|-3-----|  |---0-3-|---2-5-|
E|-------|  |-1-----|-3-----|
DIME CAPULLO ES HIJO MIO
    X8
G|-------|  |-------|-------|
D|---2-5-|  |-------|-------|  X4
A|-3-----|  |---0-3-|---2-5-|
E|-------|  |-1-----|-3-----|
OYE SORULLO
G|-------|
D|---2-5-| X7
A|-3-----|
E|-------|

G|-------|-------|
D|---2-5-|-------|   X5
A|-3-----|---2-5-|
E|-------|-3-----|

G|-------|
D|---2-5-| X5
A|-3-----|
E|-------|

OYE CAPULLO A TODOS
     X8
G|-------|  |-------|-------|
D|---2-5-|  |-------|-------|  X4
A|-3-----|  |---0-3-|---2-5-|
E|-------|  |-1-----|-3-----|
DIME CAPULLO ES HIJO MIO
    X8
G|-------|  |-------|-------|
D|---2-5-|  |-------|-------|  X4
A|-3-----|  |---0-3-|---2-5-|
E|-------|  |-1-----|-3-----|
OYE SORULLO
G|-------|
D|---2-5-| X7
A|-3-----|
E|-------|

G|-------|-------|
D|---2-5-|-------|   X8
A|-3-----|---2-5-|
E|-------|-3-----|

G|-------|-------|-------|
D|---2-5-|-------|-------|  X2
A|-3-----|---0-3-|---2-5-|
E|-------|-1-----|-3-----|
     X2
G|-------|-------|
D|---2-5-|-------|
A|-3-----|---2-5-|
E|-------|-3-----|

G|-------|
D|---2-5-| X4
A|-3-----|
E|-------|

G|-------|-------|    -------
D|---2-5-|-------|  X9-------
A|-3-----|---2-5-|    -3-3-3-
E|-------|-3-----|    -------

ESO ES TODO ESPERO QUE LES GUSTE
DUDAS O COMENTARIOS A MI CORREO
DINAEL_CABRERA@ SI QUIEREN MAS
TABS DE BAJ0 DE LA SONORA DINAMITA NO
DUDEN EN PREGUNTARMELO A MI CORREO
ATT.D.F.C.J
Suggest correction
Give kudos to tab author, rate the tab!
1 2 3 4 5
comments
print report bad tab
guest
You may want to rate the tab now too:
select rating
Wanna post a correction for this tab? Suggest correction